OFFICIALLY MISSING YOu
Paolo Santos Feat. Nina

[email protected]

standard tuning: (EADGBE)

Intro:

E----------------|---3-3----0---|
B---3-3-3----2-4-|---3-3----3-0-|
G---4-4-0----2-2-|------------0-|
D----------------|--------------|
A--------------2-|--------------|
E-3---3----2-----|-0---0--3---3-|

E--3--0-----2h3-|---3-3----3-3-
B--3--0-----3-3-|---1-1----3-3-
G---------------|--------------
D---------------|--------0-----
A-3--3---32-----|-0---0--------
E-------------0-|--------------

Verse:

E----------------|---3-3----0---|
B---3-3-3----2-4-|---3-3----3-0-|
G---4-4-0----2-2-|------------0-|
D----------------|--------------|
A--------------2-|--------------|
E-3---3----2-----|-0---0--3---3-|

E--3--0-----2h3-|---3-3----3-3-
B--3--0-----3-3-|---1-1----3-3-
G---------------|--------------
D---------------|--------0-----
A-3--3---32-----|-0---0--------
E-------------0-|--------------

Refrain:

E---3-3--3-2---3-3-------|
B---3-3--3-3---3-3---3-0-|
G--------------------0-0-|
D------------------------|
A-3---3-2--2-------------|
E-------------0--0--3--3-|

E--3--0-----2h3-|---3-3----3-3-
B--3--0-----3-3-|---1-1----3-3-
G---------------|--------------
D---------------|--------0-----
A-3--3---32-----|-0---0--------
E-------------0-|--------------

Bridge:

E-1--0-----|-1--0--3--3-----
B-1--3--3--|-1--3--3----3---
G-2--0--0--|-2--0--0--------
D-3--0--2--|-3--0--2--------
A-3--2--3--|-3--2--3--3-2---
E-1--3-----|-1--3-----------

E------------|-3--3-3--
B-1-3--1-/3-|-3--3-3--
G-0-0--0/0-|-0-------
D-2-0--2/2-|-2--0-0--
A-0-2--02/2-|-3-------
E--------3---|---------

=====()w&_17=====


Текст, аккорды и табулатура для песни "Officially Missing You", исполняет "Santos Paolo".
Используемые в песне аккорды можно найти в разделе Как брать аккорды. Аккорды для шестиструнной гитары. Другие песни можно найти на нашем сайте, воспользовавшись алфавитным указателем вверху страницы.


 
Ошибка в тексте? Выделите ошибку и нажмите Ctrl+Enter