Officially Missing You
Paolo Santos Feat. Nina
tabbed by: Patrick Dulay
           H4-St. Therese

Legend:

* = Tap
~ = Vibrato
()= Silent Strum

Intro:

1|----*------------*------------*---------0*0---------|
2|----*----(3)-----*----(2)----3*3-(3)----0*0-(0)-----|
3|---4*-4~-(4)----3*-3~-(3)----0*0-(0)----0*0-(0)-----|
4|---5*-5~-(5)----4*-4~-(4)-----*--(0)-----*--(0)-----|
5|-5--*----(5)--4--*----(4)--2--*--(2)—2---*--(2)-----|
6|-3--*---------2--*---------3--*-------3--*----------|

1|----*--(3)---2*2h3--------*-------------------------|
2|---3*3-(3)---3*3---(3)---3*3-(3)--------------------|
3|---0*0—(0)---2*2---(2)---0*0-(0)--------------------|
4|-2--*--(2)-0--*----(0)----*--(0)--5-5---------------|
5|-3--*------0--*--------2--*--(2)--5-5---------------|
6|----*------0--*--------3--*-------3-3---------------|

That's 90% right. But I'm sure with that. but if you wish to have a comment. just keep 
I dont want to hear it. hehehe joke. Just E-mail me @ [email protected] if you 
to say something.

Before i go i would like to greet all SMA tabbers & guitarist!!! MABUHAY ANG MGA 
SA Seynt Meris Akademi nang pasay HEHE. mga marian band good luck.

:+:01:+:Patrick_010709:+:01:+:


Текст, аккорды и табулатура для песни "Officially Missing You", исполняет "Santos Paolo".
Используемые в песне аккорды можно найти в разделе Как брать аккорды. Аккорды для шестиструнной гитары. Другие песни можно найти на нашем сайте, воспользовавшись алфавитным указателем вверху страницы.


 
Ошибка в тексте? Выделите ошибку и нажмите Ctrl+Enter