MOONLIGHT OVER PARIS
Paolo Santos

[email protected]

Standard Tuning:  (EADGBE)
Capo on 4th fret

Intro:

E-----------|------------------         -----------------------0-
B--0-----0--|-1----0-----------         --0-----0---1-----1------
G------1----|------0--0h2--0-0- play 4x ------1---------0---0----
D------0----|---2-----2----2-0-         ------0-------2----------
A----2------|-0----------------         ----2-------0------------
E--3--------|------------------         --3----------------------

Verse:
You said you've been overseas...

E----2--------2--------3-----0----
B---3-3------3-3------0-----3-----
G--2---2----0---2----------2------
D-0------------------2----0-------
A----------2--------3-------------
E---------------------------------

Pre-chorus:
I see I've been working late...

E----1--------3-------------------
B----33-------11-------3-----1----
G---2--2-----0--0-----2-----0-----
D--3--------2--------3-----2------
A-1--------0--------1-----3-------
E---------------------------------

E----0h2p0---------2---------------------
B---3-----3-3-----3-3-3----3--3---1-0-3--
G--2-------2-----0---0-------0--------2--
D-0-------------------------2------------
A---------------2----------3------0------
E----------------------------------------

Chorus:
Does the moonlight shine on paris...

E---------------2-----------------------
B------3---------3---3--3-----0--0-3----
G---0-0-0------0-------0--------2--0----
D----0--------0-------3-------0---------
A------------2-------3-------2----------
E-3---------0---------------3-----------

If the london bridge is fallin...
E-------------2-------------0h2p0------
B-----3--------3---3--3----3-----3-----
G--0-0-0-----0-------0----2-------2----
D---0-------0-------3----0-------------
A----------2-------3-------------------
E-3-------0----------------------------

if you follow that sunset...
E----------------------3----------
B-1--1-----3-----3-----2-2--------
G---0-----00----00----0-----------
D--2-----0-----2-----0------------
A-0-----2-----3-----2-------------
E---------------------------------

oh does the moonlight shine on paris...
E----------------3----------------
B-1--0----3-3----3----------------
G---0----0----0-------------------
D--2----0----2--------------------
A-0----2----3----3----------------
E---------------------------------

will it ever end...
E----------
B-1---0--3-
G---0-0--2-
D--2-------
A-0--------
E----------

Adlib: same as verse

Outro:

will it ever end...
E-------
B-1-3---
G-0-2---
D-2-0---
A-0-----
E-------

E-------------------3-|-----2-----2*-
B-3--3--3--3--1--1--3-|----0-0----0*-
G---0-----0-----0-----|---0---0---0*-
D--2-----0-----2----0-|--0-----0--0*-
A-3-----2-----0-------|-----------2*-
E---------------------|-3---------3*-

=====()w&_17=====


Текст, аккорды и табулатура для песни "Moonlight Over Paris", исполняет "Santos Paolo".
Используемые в песне аккорды можно найти в разделе Как брать аккорды. Аккорды для шестиструнной гитары. Другие песни можно найти на нашем сайте, воспользовавшись алфавитным указателем вверху страницы.


Слушать онлайн Moonlight Over Paris


Paolo SantosMoonlight Over Paris на Яндекс.Музыке


 
Ошибка в тексте? Выделите ошибку и нажмите Ctrl+Enter