Author/Artist: Santana
Title: winning
Album: Zebop!

Tablature Explanation:
h=hammer-on
p=pull-off
/=slide up
=slide down
b=bend half
^=bend full
br, ^r=bend & release

Intro

|--------------------------|
|-10^-------7--------------|
|-------------9^-9-7-------|
|--------------------------|
|--------------------------|
|-(0:06)-------------------|
                                                                              

|-7-10-------------7------------------------------------------------------|
|------10^-10^-------10-7-------------------------------------------------|
|-------------------------9^r7---7-9-9^r7-9-7-9^r7-9--------7-9^r7-9-7-9^-|
|------------------------------9---------------------7-7--9---------------|
|-------------------------------------------------------------------------|
|-(0:10)------------------------------------------------------------------|


|-10-13b-13b-10----10--------------------------------------------|
|---------------13----13-10---------13^---13-10----10------------|
|---------------------------12^r-10-------------12----10slowbend-|
|----------------------------------------------------------------|
|----------------------------------------------------------------|
|-(0:16)---------------------------------------------------------|
                                                                              
-->Solo


Текст, аккорды и табулатура для песни "Winning", исполняет "Santana Carlos".
Используемые в песне аккорды можно найти в разделе Как брать аккорды. Аккорды для шестиструнной гитары. Другие песни можно найти на нашем сайте, воспользовавшись алфавитным указателем вверху страницы.


 
Ошибка в тексте? Выделите ошибку и нажмите Ctrl+Enter