Victory is won
By: Carlos Santana
Album: Shaman
Tab: Aldo Palacios ([email protected])

My Notation is:

h=hammer on
p=pull-off
/=slide up
=slide down
~=vibrato
br=bend and release

1|--------------------------|-----------------------------|
2|--------------------------|-----------------------------|
3|---------12-12---14-14-~~~|-12h14--12-------------------|
4|-14-14--------------------|------------12--14--12h14-~~~|
5|--------------------------|-----------------------------|
6|--------------------------|-----------------------------|

1|-------------------------------|-----------------------------|
2|-------------------------------|-----------------------------|
3|-----------12-12--14--12h14-~~~|-12h14--12-------------------|
4|-14-14-14----------------------|------------12--14--12h14-~~~|
5|-------------------------------|-----------------------------|
6|-------------------------------|-----------------------------|

1|---------------------------------|--------------------|
2|---------------------------------|--------------------|
3|-12h14--12-----9-7~~~------------|-7/97--------------|
4|------------7----------h7h10-----|--------7--10-10-~~~|
5|---------------------------------|--------------------|
6|---------------------------------|--------------------|

1|-------------------------|-----------------------------|
2|-------------------------|-----------------------------|
3|---------12-12--14-14-~~~|-12h14--12-------------------|
4|--14-14------------------|------------12--14--12h14-~~~|
5|-------------------------|-----------------------------|
6|-------------------------|-----------------------------|

1|-------------------------------|-----------------------------|
2|-------------------------------|-----------------------------|
3|-----------12-12--14--12h14-~~~|-12h14--12-------------------|
4|-14-14-14----------------------|------------12--14--12h14-~~~|
5|-------------------------------|-----------------------------|
6|-------------------------------|-----------------------------|

1|-------------------------------------|--------------------|
2|-------------------------------------|--------------------|
3|-12h14--12-----9-7~~~/97------------|-7/97--------------|
4|------------7--------------h7h10-----|--------7--10-10-~~~|
5|-------------------------------------|--------------------|
6|-------------------------------------|--------------------|

1|---------------------|
2|----12br-------------|
3|-12------14br--14-14-|
4|---------------------|
5|---------------------|
6|---------------------|

1|-----------------------------|
2|-----------------------------|
3|-12h14--12-------------------|
4|------------12--14--12h14-~~~|
5|-----------------------------|
6|-----------------------------|

1|---------------------|
2|----12br-------------|
3|-12------14br--14-14-|
4|---------------------|...їїї???...
5|---------------------|
6|---------------------|

1|-------------------------------------|--------------------|
2|-------------------------------------|--------------------|
3|-12h14--12-----9-7~~~/97------------|-7/97--------------|
4|------------7--------------h7h10-----|--------7--10-10-~~~|
5|-------------------------------------|--------------------|
6|-------------------------------------|--------------------|

      |------------|
      | PIANO SOLO |
      |------------|

and

1|---------------------|-------------|
2|----12br-------------|-------------|
3|-12------14br--14-14-|---x/-------|
4|---------------------|-------------|
5|---------------------|-------------|
6|---------------------|-------------|

1|-----------------------------|--------------|
2|-----------------------------|--------------|
3|-12h14--12-------------------|-----12-14-12-|
4|------------12--14--12h14-~~~|-14-----------|
5|-----------------------------|--------------|
6|-----------------------------|--------------|


1|---------------------|
2|----12br-------------|
3|-12------14br--14-14-|
4|---------------------|...їїї???... Guitar Solo
5|---------------------|
6|---------------------|

and

1|---------------------------------|--------------------|
2|---------------------------------|--------------------|
3|-12h14--12-----9-7~~~------------|-7/97--------------|
4|------------7----------h7h10-----|--------7--10-10-~~~|
5|---------------------------------|--------------------|
6|---------------------------------|--------------------|

1|-------------------------------------|--------------------|
2|-------------------------------------|--------------------|
3|-12h14--12-----9-7~~~/97------------|-7/97--------------|
4|------------7--------------h7h10-----|--------7--10-10-~~~|
5|-------------------------------------|--------------------|
6|-------------------------------------|--------------------|

1|-------------------------------------|------------------|
2|-------------------------------------|------------------|
3|-12h14--12-----9-7~~~/97------------|-7/97------------|
4|------------7--------------h7h10-----|--------7--10--~~~|
5|-------------------------------------|------------------|
6|-------------------------------------|------------------|

1|---------------------------------------------|
2|---------------------------------------------|
3|-----------7---------------------------------|
4|-10-10-10-----7-7-7--------------7--------7--|
5|---------------------------------------------|
6|---------------------------------------------|    The End


Текст, аккорды и табулатура для песни "Victory Is Won", исполняет "Santana Carlos".
Используемые в песне аккорды можно найти в разделе Как брать аккорды. Аккорды для шестиструнной гитары. Другие песни можно найти на нашем сайте, воспользовавшись алфавитным указателем вверху страницы.


 
Ошибка в тексте? Выделите ошибку и нажмите Ctrl+Enter