Artist: Santana & Rob Thomas
   Album Title: SuperNatural
   Song: Smooth
   Tabbed By: David Goad ([email protected])


   Comments: Thanks to, www.santana.com for the lyrics. I will post the solo later
   when I figure it out. Carlos does a lot of improv with this so have fun.
   P.S. This is taken from the Video on VH1. Not his live version. ALSO,
   This song has some funny chords and Im not sure if the guitar plays them
   But if anyone figures them out post them. Just the fills and stuff for now.




   INTRO:

   e||--------------------------------------------------------------------|
   B||--------------------------------------------------------------------|
   G||-1112-12-1214~~~~~--14--1617--17-16--14-h-16--17--16--14---------|
   D||--------------------------------------------------------------------|
   A||--------------------------------------------------------------------|
   E||--------------------------------------------------------------------|


   Man it’s a hot one 
   Like seven inches from the midday sun 
   I hear you whisper & the words melt everyone 
   But you stay so cool 


   e||--------------------------------------------------------------------|
   B||--------------------12----12-14--15^--15^--12------12---------------|
   G||-------------12h14-----14----------------------14-------------------|
   D||-------12h14--------------------------------------------------------|
   A||-12h14--------------------------------------------------------------|
   E||--------------------------------------------------------------------|


   My mu-equita, my Spanish harlem mona lisa 


   e||--------------------------------|
   B||--15^---15^--13---15~~~~--------|
   G||--------------------------------|
   D||--------------------------------|
   A||--------------------------------|
   E||--------------------------------|


   Your my reason for reason 
   The step in my groove 


   e||---------------------------------------------------------------------|
   B||---15--15--13h15p13-------13-----------------------------------------|
   G||----------------------14------1412/14-------------------------------|
   D||---------------------------------------------------------------------|
   A||---------------------------------------------------------------------|
   E||---------------------------------------------------------------------|



   BRIDGE:

   And if you say this life ain’t good enough 
   I would give my world to lift you up 
   I could change my life to better suit your mood

   e||--------------------------------------------------------------------|
   B||--------------------12h13p12~~~~------------------------------------|
   G||------------12--14--------------------------------------------------|
   D||-12--14--15---------------------------------------------------------|
   A||--------------------------------------------------------------------|
   E||--------------------------------------------------------------------|


   Cause you're so smooth

   e||----------------------------------------------------------------------|
   B||-12h13h15--15^-15^-15^ 15^---13h15--13h15--13h15-13h15---10-----------|
   G||----------------------------------------------------------------------|
   D||----------------------------------------------------------------------|
   A||----------------------------------------------------------------------|
   E||----------------------------------------------------------------------|


   CHORUS: 
   And just like the ocean under the moon 
   Well that’s the same emotion that I get from you 
   You got the kind of lovin that can be so smooth 
   Gimme your heart, make it real 
   Or else forget about it 

   e||----------------------------------------------------------------------------|
   B||-------------------------------------------------------------15^-15--13--12-|
   G||-1112-12-1214~~~~~--14--1617--17-16--14-h-16--17--16--14-----------------|
   D||----------------------------------------------------------------------------|
   A||----------------------------------------------------------------------------|
   E||----------------------------------------------------------------------------|


   I’ll tell you one thing 
   If you would leave it would be a crying shame 

   e||-----------------------|
   B||-----------------------|
   G||--9^ h 7^--------------|
   D||-----------------------|
   A||-----------------------|
   E||-----------------------|


   In every breath and every word I hear your name calling me out 

   e||--------------------------------------------------|
   B||------------------12--13-12h13-----12-------------|
   G||----------12--14----------------14----------------|
   D||--12--14------------------------------------------|
   A||--------------------------------------------------|
   E||--------------------------------------------------|


   Out from the barrio, you hear my rhythm from your radio 
   You feel the turning of the world so soft and slow 
   Turning you round and round



   e||------------------------------------------|
   B||--710--12--13-12h13--12--10--------------|
   G||------------------------------------------|
   D||------------------------------------------|
   A||------------------------------------------|
   E||------------------------------------------|



   BRIDGE:

   And if you say this life ain’t good enough 
   I would give my world to lift you up 
   I could change my life to better suit your mood

   e||--------------------------------------------------------------------|
   B||--------------------12h13p12~~~~------------------------------------|
   G||------------12--14--------------------------------------------------|
   D||-12--14--15---------------------------------------------------------|
   A||--------------------------------------------------------------------|
   E||--------------------------------------------------------------------|


   Cause you're so smooth

   e||----------------------------------------------------------------------|
   B||-12h13h15--15^-15^-15^ 15^---13h15--13h15--13h15-13h15---10-----------|
   G||----------------------------------------------------------------------|
   D||----------------------------------------------------------------------|
   A||----------------------------------------------------------------------|
   E||----------------------------------------------------------------------|




   CHORUS: 
   And just like the ocean under the moon 
   Well that’s the same emotion that I get from you 
   You got the kind of lovin that can be so smooth 
   Gimme your heart, make it real 
   Or else forget about it 



   END SOLO : COMING SOON!!!!!!!








   Tabbed By: David Goad ([email protected]) 


Текст, аккорды и табулатура для песни "Smooth", исполняет "Santana Carlos".
Используемые в песне аккорды можно найти в разделе Как брать аккорды. Аккорды для шестиструнной гитары. Другие песни можно найти на нашем сайте, воспользовавшись алфавитным указателем вверху страницы.


Слушать онлайн Smooth [In the Style of Carlos Santana]


The Karaoke UniverseSmooth [In the Style of Carlos Santana] на Яндекс.Музыке


 
Ошибка в тексте? Выделите ошибку и нажмите Ctrl+Enter