Acoustic


|----11-10-8-10-8---8--------------|
|----------------------8-8---------|
|----------------------------------|
|----------------------------------|
|----------------------------------|
|----------------------------------|

|--3-4-3---------------8-----------------|
|--------6-4-6----------8-6-8------------|
|----------------------------------------|
|----------------------------------------|
|----------------------------------------|
|----------------------------------------|

|----11-10-8-10-8---8--------------|
|----------------------8-8---------|
|----------------------------------|
|----------------------------------|
|----------------------------------|
|----------------------------------|

|---11-10-8-10-8---8------------------------------------------------|
|---------------------8-8------8-9-8-6-8--------8----8--------------|
|---------------------------------------------8---8-----------------|
|-------------------------------------------------------------------|
|-------------------------------------------------------------------|
|-------------------------------------------------------------------|

|---------------------------|
|-----8-9-8-6-8---6----6----|
|------------------7----7---|
|---------------------------|
|---------------------------|
|---------------------------|

|-------------------------------11-10-8-10-8---8------|
|--------8-9-8------------------------------------8-8-|
|-----------------------------------------------------|
|-----------------------------------------------------|
|-----------------------------------------------------|
|-----------------------------------------------------|

|----------------------------------------------------------|
|------8-9-8-6-8---8----8-----------8-9-8-6-8----6---6-----|
|----------------8----8------------------------7--7--------|
|----------------------------------------------------------|
|----------------------------------------------------------|
|----------------------------------------------------------|


|-------------|
|-----8-9-8---|
|-------------|
|-------------|
|-------------|
|-------------|

|-----------6----------------------------------------|
|---6--8--9----9-8-9-7-6-7-6-----6------8--8---------|
|-----------------------------8--------------8-------|
|----------------------------------------------------|
|----------------------------------------------------|
|----------------------------------------------------|


|----11-10-8-10-8---8---------------|
|------------------------8-8--------|
|-----------------------------------|
|-----------------------------------|
|-----------------------------------|
|-----------------------------------|

3x
|----------------------------------------|
|----------------------------------------|
|--------10-12-10-12-10-12---------------|
|---13-----------------------------------|
|----------------------------------------|
|----------------------------------------|


|----11-10-8-10-8---8--------------|
|-----------------------8-8--------|
|----------------------------------|
|----------------------------------|
|----------------------------------|
|----------------------------------|


Текст, аккорды и табулатура для песни "Since Supernatural Acoustic", исполняет "Santana Carlos".
Используемые в песне аккорды можно найти в разделе Как брать аккорды. Аккорды для шестиструнной гитары. Другие песни можно найти на нашем сайте, воспользовавшись алфавитным указателем вверху страницы.


 
Ошибка в тексте? Выделите ошибку и нажмите Ctrl+Enter