Maria, Maria
Santana
E, A, D, G

Intro:
Play 4 times.

Fig. 1
G ---------------------|---------------
D ---------------------|---------------
A ----0-----0----0-----|-0-----0----0--
E -–------0---0------0-|----0----0-----

Fig. 2
G --------------------|--------------------|------------------
D --------------------|--------------------|------------------
A -5-----5----5-------|----5------5-----5—-|—0-----0----0-----
E –----5---5---------5|---------5----5-----|-----0----0------0

G --------------------|--------------------|------------------
D ------2----2--------|-2-----2----2-------|------------------
A ----2---2--------2--|-----2---2--------—-|—-0----0---0------
E –0------------------|--------------------|-----0---0-------0

G --------------------|--------------------|------------------
D --------------------|--------------------|------------------
A –0-----0----0-------|--5----5---5------—-|—-5-----5---5-----
E –----0---0----------|-----5---5-------5--|------5---5-------

G --------------------|--------------------|------------------
D --------------------|--------------------|-------2----2-----
A –0-----0----0-------|-0-----0---0------—-|—----2---2-------2
E –----0---0--------0-|-----0---0----------|-0----------------

G ---------------------|
D ---------------------|
A -2-------------------|
E ---------------------|

Play 1 time.
Fig. 1
G ---------------------|-----------------|----------------|
D ---------------------|-----------------|----------------|
A ----0-----0----0-----|-0-----0----0----|-0----0---0-----|
E -–------0---0------0-|----0----0-------|----0---0-----0-|

Fig. 3
Repeat 2 times.
G --------------------|--------------------|---------------
D --------------------|--------------------|---------------
A –0-----0---0--------|------5---5-------—-|-----3---3-----
E –----0---0----------|-3------3---3-------|-1-----1---1---

G --------------------|
D --------------------|
A –-—-5---5-----------|
E –3----3---4-------0-|

Fig. 1
Play 3 times.
G ---------------------|-----------------|
D ---------------------|-----------------|
A ----0-----0----0-----|-0-----0----0----|
E -–------0---0------0-|----0----0-------|Fig. 2
G --------------------|--------------------|------------------|
D --------------------|--------------------|------------------|
A -5-----5----5-------|----5------5-----5—-|—0----0----0------|
E –----5---5---------5|---------5----5-----|----0----0------0-|G --------------------|--------------------|------------------|
D ------2----2--------|-2-----2----2-------|------------------|
A ----2---2--------2--|-----2---2--------—-|—0----0---0-------|
E –0------------------|--------------------|----0---0-------0-|G --------------------|--------------------|-----------------
D --------------------|--------------------|-----------------
A –0-----0----0-------|--5----5---5------—-|—-5-----5---5----
E –----0---0----------|-----5---5-------5--|------5---5------

G --------------------|--------------------|------------------
D --------------------|--------------------|-------2----2-----
A –0-----0----0-------|-0-----0---0------—-|—----2---2-------2
E –----0---0--------0-|-----0---0----------|-0----------------

G ---------------------|
D ---------------------|
A -2-------------------|
E ---------------------|

Fig. 1
Play 3 times.
G ---------------------|---------------
D ---------------------|---------------
A ----0-----0----0-----|-0-----0----0--
E -–------0---0------0-|----0----0-----

Verse 2

G --------------------|--------------------|---------------
D -------REST---------|--------------------|---------------
A –-------------------|-0-----0---0------—-|-----5---5-----
E –-------------------|-----0---0----------|-3-----3---5---

G --------------------|--------------------|---------------
D --------------------|--------------------|---------------
A –----3---3----------|-2-----2---2--------|-0-----0---0---
E –1-----1---1--------|-----2---2--------4-|-----0---0-----

G ---------------------|
D ---------------------|
A ---------------------|
E -3-------------------|

G ---------------------|------------------|
D ---------------------|------------------|
A ---------------------|-2-----2---2------|
E -1-------------------|-----2---2------0-|

Fig. 1
Play 5 times.
G ---------------------|-----------------|
D ---------------------|-----------------|
A ----0-----0----0-----|-0-----0----0----|
E -–------0---0------0-|----0----0-------|

Verse 3:
G ---------------------|-----------------|-------------
D ---------------------|-----------------|-------------
A -0---0---0-----------|----5---5--------|----3---3----
E -–—0---0-------------|-3----3---3------|-1----1---1--

G ---------------------|-----------------|-------------
D -2-----2---2---------|-----------------|-------------
A —----2---2-----------|-0-----0---0-----|-----5---5---
E -–-----------------0-|-----0---0-------|-3-----3---3-

G ------------------------|-----------------|
D ------------------------|-2---------------|
A ----3---3----------3h5--|-----------------|
E -1----1---1----3h5------|-----------------|

Chorus:
Fig. 2
G --------------------|--------------------|------------------|
D --------------------|--------------------|------------------|
A -5-----5----5-------|----5------5-----5—-|—0-----0----0-----|
E –----5---5---------5|---------5----5-----|----0----0------0-|

G --------------------|--------------------|------------------
D ------2----2--------|-2-----2----2-------|------------------
A ----2---2--------2--|-----2---2--------—-|—-0----0---0------
E –0------------------|--------------------|-----0---0-------0

G --------------------|--------------------|---------------
D --------------------|--------------------|---------------
A –0-----0----0-------|--5----5---5------—-|—-5-----5---5--
E –----0---0----------|-----5---5-------5--|------5---5----


G --------------------|--------------------|------------------
D --------------------|--------------------|-------2----2-----
A –0-----0----0-------|-0-----0---0------—-|—----2---2-------2
E –----0---0--------0-|-----0---0----------|-0----------------

G ---------------------|
D ---------------------|
A -2-------------------|
E ---------------------|

Outro:
Fig. 1
Play 6Ѕ times.

G ---------------------|-----------------|
D ---------------------|-----------------|
A ----0-----0----0-----|-0-----0----0----|
E -–------0---0------0-|----0----0-------|

I got this from the Santana book my friend has so I'm pretty sure it's 
right.  Check repetition with CD.

any Q's or Comments write me at [email protected]

peace out


Текст, аккорды и табулатура для песни "Maria Maria", исполняет "Santana Carlos".
Используемые в песне аккорды можно найти в разделе Как брать аккорды. Аккорды для шестиструнной гитары. Другие песни можно найти на нашем сайте, воспользовавшись алфавитным указателем вверху страницы.


Слушать онлайн Maria La O


Carlos Manuel SantanaMaria La O на Яндекс.Музыке


 
Ошибка в тексте? Выделите ошибку и нажмите Ctrl+Enter