Song title: Marathon
Artist/Band: Santana
Album: Marathon, 1979
Tab by: JC Rea([email protected])

Symbols used:

h= Hammer on
p= Pull-off
/= Slide-on
////= Tremolo picking
~~~= Left hand vibrato



E----------------------------------------------------------------------
B----------------------------------------------------------------------
G----------------------------------------------------------------------
D-0////----------------------------------------------------------------
A-5////----------------------------------------------------------------
E----------------------------------------------------------------------
 00:01

E----------------------------------------------------------------------
B----------------------------------------------------------------------
G----------------------------------------------------------------------
D-0////----------------------------------------------------------------
A-3////----------------------------------------------------------------
E----------------------------------------------------------------------


E----------------------------------------------------------------------
B----------------------------------------------------------------------
G----------------------------------------------------------------------
D-3////----------------------------------------------------------------
A-5////----------------------------------------------------------------
E----------------------------------------------------------------------



E----------------------------------------------------------------------
B-7p5------7p5---------------------------------------------------------
G-----7--------7---4---------------------------------------------------
D---------------------7---4--------------------------------------------
A----------------------------7---5-------------------------------------
E----------------------------------------------------------------------
 00:15

E----------7--5~~~-----------------------------------------------------
B-5--7--8--------------------------------------------------------------
G----------------------------------------------------------------------
D----------------------------------------------------------------------
A----------------------------------------------------------------------
E----------------------------------------------------------------------
 00:18

E--------5/7-7-7-5-----------------------------------------------------
B-7p5--------------7-5------5-5/7--7-5---------------------------------
G-----7----------------7--4-------------7------------------------------
D----------------------------------------------------------------------
A----------------------------------------------------------------------
E----------------------------------------------------------------------
 00:24

E--------10/12---10~~~-------------------------------------------------
B-5-7-8----------------------------------------------------------------
G----------------------------------------------------------------------
D----------------------------------------------------------------------
A----------------------------------------------------------------------
E----------------------------------------------------------------------
 00:28

E-----------7----------------------------------------------------------
B-7p5-----7-----5h7p5--------------------------------------------------
G-----7----------------7---4-------------------------------------------
D----------------------------7-4---------------------------------------
A--------------------------------7-5-----------------------------------
E----------------------------------------------------------------------
 00:38

E--------5/7---5~~~----------------------------------------------------
B-5-7-8----------------------------------------------------------------
G----------------------------------------------------------------------
D----------------------------------------------------------------------
A----------------------------------------------------------------------
E----------------------------------------------------------------------
 00:41

E----------5/7--7-7-5--------------------------------------------------
B-7p5------------------7-5--------5--5/7--7-5--------------------------
G-----7---------------------7-4----------------7-----------------------
D----------------------------------------------------------------------
A----------------------------------------------------------------------
E----------------------------------------------------------------------
 00:51

E---------10/12----10~~~-----------------------------------------------
B-5-7-8----------------------------------------------------------------
G----------------------------------------------------------------------
D----------------------------------------------------------------------
A----------------------------------------------------------------------
E----------------------------------------------------------------------
 00:55...End

Comments: [email protected]


Текст, аккорды и табулатура для песни "Marathon", исполняет "Santana Carlos".
Используемые в песне аккорды можно найти в разделе Как брать аккорды. Аккорды для шестиструнной гитары. Другие песни можно найти на нашем сайте, воспользовавшись алфавитным указателем вверху страницы.


 
Ошибка в тексте? Выделите ошибку и нажмите Ctrl+Enter