Hope You're Feeling Better - Santana

   intro (x4)         verse (x3)           verse outro         and chorus
G|-----------------|---9----9----9-------|---9----9----9------------------------------------
D|---5--7---5-55---|------------------57-|------------------557--5---------7--5---------7--5
A|5-7--7--57-7--7--|7-7--7-7--7-7--7-7---|7-7--7-7--7-7--7-7-------77777777-----77777777----
E|-----------------|---------------------|--------------------------------------------------

            solo
----------|9--7--------9119---------------------------------------------------------------------
----------|------7--5------9119-----------------------------------------------------------------
--77777777|----------7---------9119-77-77-7775-55-55-5550-00-00-0057-77-77-7777-77-77-7775-55-55
----------|-------------------------------------------------------------------------------------

-------------------------------------------------------------------------------------------------
---------------------------------------------------------------5553------------------------------
5550-00-00-0057-77-77-7777-77-77-7775-55-55-5550-00-00-003----3----53----3-5-7--57------3-5-7p5h7
----------------------------------------------------------3-5--------3-5------------3-5----------

---------------------|
---------------------|
-57--7p5h7--7p5h7---|
---------------------|

   played after last chorus
G|--------9----------9----------------------9-|
D|9-7575-9---9-7575-9---9-775759-75759-75759--|the outro is the same as the intro with the last 
A|------7----------7--------------------------|  part of the solo added on.
E|--------------------------------------------|

p=pull off
h=hammer on
=slide down

tabbed by Achilles ([email protected])


Текст, аккорды и табулатура для песни "Hope Youre Feeling Better", исполняет "Santana Carlos".
Используемые в песне аккорды можно найти в разделе Как брать аккорды. Аккорды для шестиструнной гитары. Другие песни можно найти на нашем сайте, воспользовавшись алфавитным указателем вверху страницы.


 
Ошибка в тексте? Выделите ошибку и нажмите Ctrl+Enter