STANDARD TUNING

Intro 
G)----6-----4-4-6-4----------------6--4-4-6-4----I
D)----6-----4-4-6-4----4-4-4-4-----6--4-4-6-4----I 
A)----4-----2-2-4-2----4-4-4-4-----4--2-2-4-2----I
E)----0-----0-0-0-0----2-2-2-2-----0--0-0-0-0----I

All those  Saturday's when kids would go out to play, yo I was up in my room I let the stereo play
Wasn't faded, not jaded, just a kid w/ a pad and a pen and a big imagination.

Pre-chorus
G)---6-6-6-6-6---7-7-7-7---9-9----I 
D)---6-6-6-6-6---7-7-7-7---9-9----I  repeat  4X's
A)---4-4-4-4-4---5-5-5-5---7-7----I
E)--------------------------------I

All this I see, I find pu**y ever love to the line.
Make it, break it, take it until I'm overrated!

CHORUS 
G)----6-----4-4-6-4----------------6---4-4-6-4----I
D)----6-----4-4-6-4----4-4-4-4-----6---4-4-6-4----I  
A)----4-----2-2-4-2----4-4-4-4-----4---2-2-4-2----I
E)----0-----0-0-0-0----2-2-2-2-----0---0-0-0-0----I

Bridge
G)---4-4-4-4-4-4-4------6-6-6-6-6-6-6----I
D)---4-4-4-4-4-4-4------6-6-6-6-6-6-6----I
A)---2-2-2-2-2-2-2------4-4-4-4-4-4-4----I
E)---0-0-0-0-0-0-0------0-0-0-0-0-0-0----I
I can see it in my mind, I can see it in your eyes
Its close enough to touch it now, far away enough to touch.

Riff
G) ------6-6----4-4-4----------------------I
D)-------6-6----4-4-4----6-6----4-4-4----I   repeat 4X's 
A)-------4-4----2-2-2----6-6----4-4-4----I
E)-------0-0----0-0-0----4-4----2-2-2----I
It's so inside of me, it's so inside of me.
It's so inside of me, it's so inside of my head.

CHORUS

Well that's it. This is a MAD CRAZY group and I hope this tab helped. 
No one else had a tab for this song even remotely close. 
I know this one isn't great, but I hope it will be a precedent for others to follow.  
Until then.......WING IT!!!


Текст, аккорды и табулатура для песни "Click Click Boom", исполняет "Saliva".
Используемые в песне аккорды можно найти в разделе Как брать аккорды. Аккорды для шестиструнной гитары. Другие песни можно найти на нашем сайте, воспользовавшись алфавитным указателем вверху страницы.


Слушать онлайн Click Click Boom


SalivaClick Click Boom на Яндекс.Музыке


 
Ошибка в тексте? Выделите ошибку и нажмите Ctrl+Enter