Artist: Sade
Song: The sweetest gift
Tabbed by: Marko Borosic
E-mail: [email protected]


Chords used:
C  (032010)
C7 (032310)
F  (133211)
G  (355433)


	C		C	      C	             C
--------0--------------0--------------0--------------0----------|
------1---1----------1---1----------1---1----------1---1--------|
----0-------0------0-------0------0-------0------0-------0------|
----------------------------------------------------------------|
--3--------------3--------------3--------------3----------------|
----------------------------------------------------------------|

	F		F	     C		    C
-------------------------------------0--------------0-----------|
-------1--------------1------------1---1----------1---1---------|
-----2---2----------2---2--------0-------0------0-------0-------|
---3-------3------3-------3-------------------------------------|
-------------------------------3--------------3-----------------|
-1--------------1-----------------------------------------------|

       G	      G		     C		      C7
-------3--------------3--------------0----------------0---------|
-------3--------------3------------1---1------------1---1-------|
-----4---4----------4---4--------0-------0--------3-------3-----|
---5-------5------5-------5-------------------------------------|
-------------------------------3----------------3---------------|
-3--------------3-----------------------------------------------|

	F	     F		      G			F
-------1-------------1----------------3----------------1--------|
-----1---1---------1---1--------------3----------------1--------|
---2-------2-----2-------2----------4---4------------2---2------|
----------------------------------5-------5--------3-------3----|
----------------------------------------------------------------|
-1-------------1----------------3----------------1--------------|

	C		C		C		C
-------0---------------0----------------------------------------|
-----1---1-----------1---1----------------1---------------1-----|
---0-------0-------0-------0------------0---0-----------0---0---|
------------------------------------0h2-------2-----0h2-------2-|
-3---------------3----------------3---------------3-------------|
----------------------------------------------------------------|

	F	     F		    C		    C
-------1-------------1------------------------------------------|
-------1-------------1--------------1--------------1------------|
---------2-------------2----------0---0----------0---0----------|
-----3-----3-------3-----3------2-------2------2-------2--------|
---3-------------3------------3--------------3------------------|
-1-------------1------------------------------------------------|

	G	     G			C		C
-------3-------------3-----------------0------------------------|
-------3-------------3-----------------1----------------1-------|
-----4---4---------4---4-------------0---0------------0---0-----|
-----------5-------------5-------0h2-------2------0h2-------2---|
---5-------------5-------------3----------------3---------------|
-3-------------3------------------------------------------------|

	F	     F			C		C
-------1-------------1------------------0--------------0--------|
-------1-------------1------------------1--------------1--------|
---------2-------------2--------------0---0----------0---0------|
-----3-----3-------3-----3--------0h2-------2------2-------2----|
---3-------------3--------------3----------------3--------------|
-1-------------1------------------------------------------------|

	G	      G		      C		      C
--------3-------------3---------------0---------------0---------|
--------3-------------3-------------1---1-----------1---1-------|
----------4-------------4---------0-------0-------3-------3-----|
-----5------5-------5-----5-------------------------------------|
---5--------------5-------------3---------------3---------------|
-3--------------3-----------------------------------------------|

	F		F	      G		     C
-------1---------------1--------------3-------------------------|
-------1---------------1--------------3--------------1----------|
-----2---2-----------2---2----------4---4----------2---2--------|
-----------3---------------3------5-------5------3-------3------|
---3---------------3--------------------------------------------|
-1---------------1--------------3--------------1----------------|

-------------------------------------------------------|
-------------------------------------------------------|
---5 times the C chord------play the last 3 as barret--|
-------------------------------------------------------|you will know why, when you listen to the cd
-------------------------------------------------------|
-------------------------------------------------------|

The picking may not be 100% correct but the chords are, so enjoy


Текст, аккорды и табулатура для песни "Sweetest Gift", исполняет "Sade".
Используемые в песне аккорды можно найти в разделе Как брать аккорды. Аккорды для шестиструнной гитары. Другие песни можно найти на нашем сайте, воспользовавшись алфавитным указателем вверху страницы.


Слушать онлайн The Sweetest Gift


Sade AduThe Sweetest Gift на Яндекс.Музыке


 
Ошибка в тексте? Выделите ошибку и нажмите Ctrl+Enter