Припев(вступление):
     
1|---3-2-0-----------2-----2-3-------
2|---------0-1---------5-4-------0---
3----2-------------0---0-
4--2---2-----------------
50-----------------------
6|---0---------------2-------0-------

   
1|---3-2-0-----------2-----2-0-------
2|---------0-1---------5-4-------0---
3----2-------------0---0-
4--2---2-----------------
50-----------------------
6|---0---------------2-------0-------

I куплет:
Em                      Am
Все дороги к тебе заколдованы,
F#                       Hm
Между нами стеной, темный лес стоит.
Hm                     Em
Где найти мне тебя, мое солнышко,
F#                          Hm
Птичьим криком к тебе боль моя летит.
Hm                       Em
Камнем вниз упаду крылья обломав,
F#                       Hm
И поднявшись с колен тихо прошепчу:
Hm                       Em
"Где же прячешься ты мое солнышко".
F#                      Hm
Отзовись я тебя так давно ищу.

Припев:
Hm             Em   F#    Hm
В омут твоих глаз снова упаду,
Полюбил тебя на свою беду.
И не убежать от моей любви,
Все чем я живу это только ты.

II куплет:

Я прощаюсь, с холодною осенью,
Понимая, что мы не увидемся.
Над лесами, над снежною проседью,
Я искать тебя буду любимая.
Ветер чувства мои в клочья разорвал
И холодным ручьем слезы, как вода.
Не найти мне тебя мое солнышко,
И с тобою не быть уже никогда.

Припев: x2 


Текст, аккорды и табулатура для песни "В омут", исполняет "Руки Вверх".
Используемые в песне аккорды можно найти в разделе Как брать аккорды. Аккорды для шестиструнной гитары. Другие песни можно найти на нашем сайте, воспользовавшись алфавитным указателем вверху страницы.


 
Ошибка в тексте? Выделите ошибку и нажмите Ctrl+Enter