Соло 1,в начале.
e----------------------------------------------------
h-12^14--12--12--14^12-------------------------------
g---------------------13^14-16-14-11-9-7-16-14-11-9-7
d----------------------------------------------------
a----------------------------------------------------
e----------------------------------------------------

Можно сыграть его по другому.
e-7^9--7-7-9^7---------------------------------------
h--------------9^10-12-10-7-5-3-12-10-7-5-3----------
g----------------------------------------------------
d----------------------------------------------------
a----------------------------------------------------
e----------------------------------------------------

Теперь соло между куплетами
e--9-9-9-7-9-9----------------------------------------
h---------------10-10-10-8-10-12-12-12-10-12-9-9-9-7-9
g-----------------------------------------------------
d-----------------------------------------------------
a-----------------------------------------------------
e-----------------------------------------------------


   C#m                    A
   Вечером теплым брожу один
           H                   G#                 
  "Ты не сможешь вернуть ее",-шепчет мне нежно дождь,
   Знаю что встречу тебя с другим,
   Лучше это была б не ты ,но рядом с ним ты идешь

   Я ж тебя так любил ,так любил,
   Думал что ты ждала меня,что же ты сделала?
   Я ж тебя так любил ,так любил,
   А теперь потерял тебя.

Припев:              C#m              A
        А он тебя целует,говорит что любит
                      H                   G#
        И ночами обнимает ,к сердцу прижимает,
        А я мучаюсь от боли со своей любовью
        Фотографии в альбоме о тебе напомнят,о тебе...

   Вечером теплым гремит гроза,
   Снова вижу я вас вдвоем,ты улыбаешься,
   В сторону я отвожу глаза,
   Что же делаешь ты со мной -зачем издеваешься?

   Я ж тебя так любил ,так любил,
   Думал что ты ждала меня,что же ты сделала?
   Я ж тебя так любил ,так любил,
   А теперь потерял тебя.

Припев.


Текст, аккорды и табулатура для песни "Он тебя целует", исполняет "Руки Вверх".
Используемые в песне аккорды можно найти в разделе Как брать аккорды. Аккорды для шестиструнной гитары. Другие песни можно найти на нашем сайте, воспользовавшись алфавитным указателем вверху страницы.


Слушать онлайн Он тебя целует


Руки Вверх!Он тебя целует на Яндекс.Музыке


 
Ошибка в тексте? Выделите ошибку и нажмите Ctrl+Enter