Transcribed by Sean Jones        Finding My Way			Album:Rush
                                    By Rush			Track: 1
				


       11           h  h     q  q  h     w       q  q  h     w       h  h       
||---------------|--------|-----r--r--|--r--||------r--r--|--r---||-------------
||---------------|--5-----|--7--e--e--|--e--||*-----e--e--|--e--*||--5----------
||---------------|-----5--|-----s--s--|--s--||*--0--s--s--|--s--*||-----5-------
||---------------|--------|-----t--t--|--t--||------t--t--|--t---||-------------
                                                                                

     q  q  h     w       h  h     e  e  e  e  e  e  e  q        e  e  q  e      
||------r--r--|--r---||--------|--------------r-----r-----|---------------------
||*-----e--e--|--e--*||--5-----|--7--7--5--7--e--7--e--5--|--------------4------
||*--0--s--s--|--s--*||-----5--|--------------s-----s-----|-----5--4--5---------
||------t--t--|--t---||--------|--------------t-----t-----|---------------------
                                                                                

e  s  s     e  e  e  e  e  e  e  q        q  q  e  e  e     e  e  e  e  e  e    
---------|--------------r-----r-----|-----7--------------|--------------r-------
5--6--6--|--7--7--5--7--e--7--e--5--|-----------4--5--6--|--7--7--5--7--e--7----
---------|--------------s-----s-----|--------5-----------|--------------s-------
---------|--------------t-----t-----|--------------------|--------------t-------
                                                                                

e  q        e  e  e  e  e  e  e     e  e  e  e  e  e  e  q        e  e  e  e    
r-----|-----7--------------------|--------------r-----r-----|-------------------
e--5--|--------7--------4--5--6--|--7--7--5--7--e--7--e--5--|-------------------
s-----|-----------5--5-----------|--------------s-----s-----|-----5--4--5--5----
t-----|--------------------------|--------------t-----t-----|-------------------
                                                                                

e  e  e      e  e  e  e  e  e  e  q        e  e  q  s  s  e  s  s     e  e      
---------||--------------r-----------|-----------------------------|------------
5--------||--------------e--------3--|--------3--5--4--4--5--------|------------
---5--4--||--3--3--1--3--s-----3-----|-----3-----------------------|--3--3------
---------||--------------t--3--------|-----------------------3--3--|------------
                                                                                

e  e  e  e  e  q        e  e  q  e  e  e     e  e  e  e  e  e  e  q        q    
------r-----r-----|-----------------------|--------------r-----r-----|-----7----
------e-----e--3--|--------3--5--4--5--6--|--7--7--5--7--e--7--e--5--|----------
1--3--s--3--s-----|-----3-----------------|--------------s-----s-----|----------
------t-----t-----|-----------------------|--------------t-----t-----|----------
                                                                                

q  e  e  s  s     e  e  e  e  e  e  e  q        q  q  e  e  e     e  e  e  q    
---------------|--------------r-----r-----|-----7--------------|----------------
---4--5--6--6--|--7--7--5--7--e--7--e--5--|-----------5-----5--|--3--3--3-------
5--------------|--------------s-----s-----|--------5-----5-----|-----------3----
---------------|--------------t-----t-----|--------------------|----------------
                                                                                

e  e  e     e  e  e  q  e  e  e     e  e  e  q  e  q    e  q  q  e  e  e        
---------|-----------------------|-------------------|--r-----------------||----
---3--4--|--5--5--5--------5--6--|--7--7--5--7-----7/|--e--5--5-----5--7--||----
3--------|-----------5--5--------|--------------7----|--s--------7--------||----
---------|-----------------------|-------------------|--t-----------------||----
                                                                                

q  q  w        5         h  h     q  q  h     w       q  q  h     w       h     
---r--r--|------------|--------|-----r--r--|--r--||------r--r--|--r---||--------
7--e--e--|------------|--5-----|--7--e--e--|--e--||*-----e--e--|--e--*||--5-----
---s--s--|------------|-----5--|-----s--s--|--s--||*--0--s--s--|--s--*||--------
---t--t--|------------|--------|-----t--t--|--t--||------t--t--|--t---||--------
                                                                                

h       q  q  h     w       h  h       e  e  e  e  e  e  e  q        e  e  e    
---||------r--r--|--r---||--------||---------------r-----r-----|----------------
---||*-----e--e--|--e--*||--5-----||*--7--7--5--7--e--7--e--5--|----------------
5--||*--0--s--s--|--s--*||-----5--||*--------------s-----s-----|-----5--4--5----
---||------t--t--|--t---||--------||---------------t-----t-----|----------------
                                                                                

e  e  e  s  s       e  e  e  e  e  e  e  q        e  e  e  e  e  e  e     e     
----------------||--------------r-----r-----|--------------------------|--------
---4--5--6--6--*||--7--7--5--7--e--7--e--5--|--------------7--5--------|--------
5--------------*||--------------s-----s-----|-----5--3--5--------5--4--|--3-----
----------------||--------------t-----t-----|--------------------------|--------
                                                                                

e  e  e  e  e  e  q        e  e  q  s  s  e  s  s     e  e  e  e  e  e  e  q    
---------r-----------|-----------------------------|--------------r-----r-------
---------e--------3--|--------3--5--4--4--5--------|--------------e-----e--3----
3--1--3--s-----3-----|-----3-----------------------|--3--3--1--3--s--3--s-------
---------t--3--------|-----------------------3--3--|--------------t-----t-------
                                                                                

      e  s  s  q  e  e  e     e  e  e  e  e  e  e  q        q  q  e  e  s  s    
|--------------------------|--------------r-----r-----|-----7-------------------
|--------3--3--5--4--5--6--|--7--7--5--7--e--7--e--5--|-----------4--5--6--6----
|-----3--------------------|--------------s-----s-----|--------5----------------
|--------------------------|--------------t-----t-----|-------------------------
                                                                                

   e  e  e  e  e  e  e  q        q  q  e  e  e     e  e  e  q  e  e  e     e    
|--------------r-----r-----|-----7--------------|-----------------------|-------
|--7--7--5--7--e--7--e--5--|-----------5-----5--|--3--3--3--------3--4--|--5----
|--------------s-----s-----|--------5-----5-----|-----------3--3--------|-------
|--------------t-----t-----|--------------------|-----------------------|-------
                                                                                

e  e  q  e  e  e     e  e  e  q  e  q    e  q  q  e  e  e       e  e  e  e      
------------------|-------------------|--r-----------------||---------r---------
5--5--------5--6--|--7--7--5--7-----7/|--e--5--5-----5--7--||*--------e---------
------5--5--------|--------------7----|--s--------7--------||*--0--0--s--4------
------------------|-------------------|--t-----------------||---------t---------
                                                                                

e  e  e  e     e  e  e  e  e  e  e  e     e  e  e  e  e  e  e  e     e  e  e    
r-----r-----|--------r-----r-----r-----|--------r-----r-----r-----|--------r----
e-----e-----|--------e-----e-----e-----|--------e-----e-----e-----|--------e----
s--5--s--6--|--5--5--s-----s-----s-----|--0--0--s--4--s--5--s--6--|--5--5--s----
t-----t-----|--------t--2--t--3--t--4--|--------t-----t-----t-----|--------t----
                                                                                

e  e  e  e  e       e  e  e  e  e  e  e  e     e  e  e  e  e  e  e  e     e     
---r-----r------||--------r-----r-----r-----|--------r-----r-----r-----|--------
4--e--5--e--6--*||--5--5--e-----e-----e-----|--------e-----e-----e-----|--------
---s-----s-----*||--------s--2--s--3--s--4--|--3--3--s-----s-----s-----|--------
---t-----t------||--------t-----t-----t-----|--------t--0--t--1--t--2--|--3-----
                                                                                

e  e  e  e  e  e  e     e  e  e  e  e  e  e  e     e  e  e  e  e  e  e  e       
---r-----r-----r-----|--------r-----r-----r-----|--------r-----r-----r-----|----
---e-----e-----e-----|--------e-----e-----e-----|--------e-----e-----e-----|----
---s--2--s--3--s--4--|--3--3--s-----s-----s-----|--0--0--s--4--s--5--s--6--|----
3--t-----t-----t-----|--------t--0--t--1--t--2--|--------t-----t-----t-----|----
                                                                                

e  e  e  e  e  e  e  e     e  e  e  e  e  e  e  e     e  e  e  e  e  e  e  e    
------r-----r-----r-----|--------r-----r-----r-----|-----------------4--5--7----
------e--4--e--5--e--6--|--------e-----e-----e-----|-----4--5--6--7-------------
5--5--s-----s-----s-----|--0--0--s--4--s--5--s--6--|--5-------------------------
------t-----t-----t-----|--------t-----t-----t-----|----------------------------
                                                                                

    e  e  e  q  e  e  e     e  e  e  q  e  e  e     e  e  e  q  e  q    e  q    
|-----------------------|-----------------------|-------------------|--r-------
-|--3--3--3--------3--4--|--5--5--5--------5--6--|--7--7--5--7-----7|--e--5----
-|-----------3--3--------|-----------5--5--------|--------------7----|--s-------
-|-----------------------|-----------------------|-------------------|--t-------
                                                                                

q  e  e  e     e  e  e  q  e  e  e     e  e  e  q  e  e  e     e  e  e  q  e    
------------|-----------------------|-----------------------|-------------------
5-----5--4--|--3--3--3--------3--4--|--5--5--5--------5--6--|--7--7--5--7-------
---5--------|-----------3--3--------|-----------5--5--------|--------------7----
------------|-----------------------|-----------------------|-------------------
                                                                                

q    e  q  q  e  e  e      e  e  e  q  e  e  e     e  e  e  q  e  e  e          
--|--r-----------------||--------r--------------|--r--------------------||------
7|--e--5--5-----5--6--||--7--7--e--------7--6--|--e--5--5-----4--5--6--||*-----
--|--s--------5--------||--------s--7--7--------|--s--------5-----------||*-----
--|--t-----------------||--------t--------------|--t--------------------||------
                                                                                

e  e  e  e  e  e  e  e     e  e  e  q  e  e  e       e  e  e  q  e  e  e        
------------r-----------|-----7------------------||-----------------------|-----
7--7--7--5--e-----7--5--|--5-----5-----4--5--6--*||--7--7--5--7-----7--6--|-----
------------s--7--------|-----------5-----------*||--------------7--------|-----
------------t-----------|------------------------||-----------------------|-----
                                                                                

e  q  q  e  e  e     e  e  e  q  e  e  q        e  e  e  e  e  e  e     e  e    
---7--------------|-----------------------|--------------------------|----------
5-----------------|--------------------3--|--------3--4--5-----5-----|----------
------5--5--5--4--|--3--3--1--3-----3-----|-----3-----------5-----5--|--3--3----
------------------|--------------3--------|--------------------------|----------
                                                                                

e  e  e  e  e  e     e  e  e  e  e  e  e  e     e  e  e  e  e  q  q        e    
------------------|--------------------------|--------------r--------|----------
------------------|--3-----3--4--5--4--5--6--|--7--7--5--7--e--7--5--|----------
1--3--3-----3--3--|-----3--------------------|--------------s--------|-----5----
---------3--------|--------------------------|--------------t--------|----------
                                                                                

e  q  e  e  e     e  e  e  e  e  e  e  e     e  e  e  q  e  e  e     e  e  e    
---------------|--------------r-----------|-----7-----------------|--------r----
------4--5--6--|--7--7--5--7--e-----7--6--|--5-----5--------4--5--|--5--7--e----
4--5-----------|--------------s--7--------|-----------5--5--------|--------s----
---------------|--------------t-----------|-----------------------|--------t----
                                                                                

e  e  e  e  q        q  e  e  e  e  e     e  e  e  e  e  e  e  q        e  q    
---------------|-----7-----------------|--------r-----------------|-----r-------
---------------|-----------------------|--------e-----------------|-----e--4----
---3--5--6--5--|--------5--3--5--3-----|--------s-----3--5--6--5--|-----s-------
5--------------|--------------------5--|--3--5--t--5--------------|-----t-------
                                                                                

e  e  e  e  e     e  e  e  e  e  e  e  q     e  q  e  q  q       e  e  e  e     
---------------|--------r-----------------|--r--------------||---------r--------
4--5--5--6--7--|--------e-----------------|--e--------------||*--------e--------
---------------|--------s-----3--5--6--5--|--s--------------||*--------s--------
---------------|--3--5--t--5--------------|--t--2--2--1--2--||---3--5--t--5-----
                                                                                

e  e  e  q        e  q  e  e  e  e  e       e  e  e  e  e  e  e  q        e     
------------|-----r---------------------||--------r-----------------|-----r-----
------------|-----e--4--4--5--5--6--7--*||--------e-----------------|-----e-----
3--5--6--5--|-----s--------------------*||--------s-----3--5--6--5--|-----s-----
------------|-----t---------------------||--3--5--t--5--------------|-----t-----
                                                                                

q  e  q  q     e  e  e  e  e  e  e  q        e  q  e  e  e  e  e     e  e  e    
------------|--------r-----------------|-----r--------------------|--------r----
------------|--------e-----------------|-----e--4--4--5--5--6--7--|--------e----
------------|--------s-----3--5--6--5--|-----s--------------------|--------s----
2--2--1--2--|--3--5--t--5--------------|-----t--------------------|--3--5--t----
                                                                                

e  e  e  e  e     e  e  e  e  e  e  e  e     q  e  q  e  e  e     q  e  E  s    
---------------|--r--------------4--5--7--|--------------------|----------------
---------------|--e--4--5--6--7-----------|--3--3--------3--4--|--5--5-----5----
---3--5--6--5--|--s-----------------------|--------3--3--------|--------5-------
5--------------|--t-----------------------|--------------------|----------------
                                                                                

e  e  e     e  q  e  q  e  e    e  e  e  q  e  e  e     e  e  e  q  e  e  e     
---------|-------------------|-----------------------|--------------------------
---5--6--|--7--7--7--------7|--3--3--3--------3--4--|--5--5--5--------5--6-----
5--------|-----------7--7----|-----------3--3--------|-----------5--5-----------
---------|-------------------|-----------------------|--------------------------
                                                                                

   e  e  e  e  e  e  q    e  q  q  e  e  e     q  q  h        5         h  h    
|----------------------|--r-----------------|-----r--r--|------------|----------
|--7--7--5--7--7--5--7/|--e--5--5-----5--7--|-----e--e--|------------|--5-------
|----------------------|--s--------7--------|--0--s--s--|------------|-----5----
|----------------------|--t-----------------|-----t--t--|------------|----------
                                                                                

     q  q  h     w       h  h     e  e  e  e  e  e  e  q        q  e  e  e      
||------r--r--|--r---||--------|--------------r-----r-----|-----7---------------
||*-----e--e--|--e--*||--5-----|--7--7--5--7--e--7--e--5--|--------------4------
||*--0--s--s--|--s--*||-----5--|--------------s-----s-----|--------5--5---------
||------t--t--|--t---||--------|--------------t-----t-----|---------------------
                                                                                

e  e       e  e  e  e  e  e  e  q        e  e  e  e  e  e  e       e  e  e      
------||---------------r-----r-----|---------------------------||---------------
5--6--||*--7--7--5--7--e--7--e--5--|-----------------4--5--6--*||--7--7--5------
------||*--------------s-----s-----|-----5--4--5--5-----------*||---------------
------||---------------t-----t-----|---------------------------||---------------
                                                                                

e  h                                                                            
---r--||------------------------------------------------------------------------
7--e--||------------------------------------------------------------------------
---s--||------------------------------------------------------------------------
---t--||------------------------------------------------------------------------
                                                                                

This is my first attempt at transcribing, and any comments, corrections, etc. would 
be welcome. Feel free to e-mail me at [email protected]


[email protected]===============
==                           TABLATURE EXPLANATION                            ==
================================================================================

----------                            ----------
----5h8--- Hammeron                   ----(8)--- Ghost Note
----------                            ----------
----5p8--- Pulloff                    ----------

----------                            ----------
----5/8--- Slide Up                   -----x---- Dead Note
----------                            ----------
----58--- Slide Down                 ----------

----------                            ||------|| Repeat Start & End
----5~~~-- Vibrato                    ||*----*||
----------                            ||*----*||
----------                            ||------||

Rhythm:
  w = whole note            W = dotted whole
  h = half note             H = dotted half
  q = quarter note          Q = dotted quarter
  e = eighth note           E = dotted eighth
  s = sixteenth note        S = dotted sixteenth
  ^ = triplet

================================================================================
==           Created with a shareware version of the BUCKET 'O TAB            ==
==                  tablature creation software for Windows                   ==
==                           For more information:                            ==
==                          email: [email protected]                          ==
==      US Mail: The Bucket, 3176-B5 Summit Square Dr., Oakton, VA 22124      ==
================================================================================


Текст, аккорды и табулатура для песни "Finding My Way", исполняет "Rush".
Используемые в песне аккорды можно найти в разделе Как брать аккорды. Аккорды для шестиструнной гитары. Другие песни можно найти на нашем сайте, воспользовавшись алфавитным указателем вверху страницы.


 
Ошибка в тексте? Выделите ошибку и нажмите Ctrl+Enter