RUFiO - WHY WAIT

by xing

GUITAR 1'S PARTS:
-----------------
Intro:
e|---------------------------------------------------------------------------|
B|---------------------------------------------------------------------------|
G|---------------------------------------------------------------------------|
D|6-6-6x-----------------2-2-2x--4-4-4x--6-6-6x-----------------2-2-2x-------|
A|6-6-6x---9-9--9-9-9--9-2-2-2x--4-4-4x--6-6-6x---9-9--9-9-9--9-2-2-2x-------|
E|4-4-4x---6-6--6-7-7--7-0-0-0x--2-2-2x--4-4-4x---6-6--6-7-7--7-0-0-0x-------|

Intro Cont'd:
e|---------14-------14-------11-------11-------14-------14-------11-------11-|
B|------------12-------12-------12-------12-------12-------12-------12-------|
G|---------------11-------11-------11-------11-------11-------11-------11----|
D|4-4-4-*--------------------------------------------------------------------|
A|4-4-4-4--------------------------------------------------------------------|
E|2-2-2----------------------------------------------------------------------|

Intro Cont'd:
e|------11---------|
B|12-------12------|
G|---11-------11---|
D|-----------------|
A|-----------------|
E|-----------------|

Verse:  (2x)
e|---------------------------------------------------------------------------|
B|---12------------11-----------12------------11-------12-------12-------12--|
G|11----11------11----11-----11----11------11----11-------11-11----11-11-----|
D|---------9~------------9~-----------9~------------9~-----------------------|
A|---------------------------------------------------------------------------|
E|---------------------------------------------------------------------------|
                                                         .....    .....

Verse Cont'd:
e|------------------------------|
B|------12-------12----12-------|
G|11-11----11-11----11----11----|
D|------------------------------|
A|------------------------------|
E|------------------------------|
 .....    .....    ..    ..

Pre Chorus:  (Ska-ish strumming)
e|--------------------------------|
B|--------------------------------|
G|-----------4--4--4--4--4-11~----|
D|4-4--4--4--4--4--4--4--4--x-----|
A|1-1--1--1--2--2--2--2--2--9~----|
E|--------------------------------|

Chorus:
e|---------------------------------------------------------------------------|
B|---------------------------------------------------------------------------|
G|4-4-4-4-4-4-4-4-11-11-9-8-4-4-4-4-4-4-4-4-8-9-11-9-4-4-4-4-4-4-4-4-11-11-9-|
D|x-x-x-x-x-x-x-x--x--x-x-x-x-x-x-x-x-x-x-x-x-x--x-x-x-x-x-x-x-x-x-x--x--x-x-|
A|2-2-2-2-2-2-2-2--9--9-7-6-2-2-2-2-2-2-2-2-6-7--9-7-2-2-2-2-2-2-2-2--9--9-7-|
E|---------------------------------------------------------------------------|

Chorus Cont'd:
e|--------------------------------------------|
B|--------------------------------------------|
G|8-4-4-4-4-4-4-4-4-11-11-11-11-11-11-11-11---|
D|x-x-x-x-x-x-x-x-x--x--x--x--x--x--x--x--x---|
A|6-2-2-2-2-2-2-2-2--9--9--9--9--9--9--9--9---|
E|--------------------------------------------|

Chorus Cont'd:  (Repeat lots)    End of Chorus:
e|-----------------------------|--------------|
B|-----------------------------|--------------|
G|---------11---------11p9p8h9-|--------------|
D|-----9----------9------------|--2--2--4~----|
A|-9-9---9----9-9---9----------|--2--2--4~----|
E|-----------------------------|--0--0--2~----|
  ...   .    ...   .

Repeat Intro

2nd Verse:  (2x)
e|------------------------|
B|------7~--------7~------|
G|----4----4----4----4----|
D|2/4---------2-----------|
A|------------------------|
E|------------------------|

2nd Verse Cont'd:
e|---------------------------------------------------------------------------|
B|---------------------------------------------------------------------------|
G|---------------------------------------------------------------------------|
D|-----6-----------------6-----------------2-----------------2---------------|
A|-----6-----------------6-----------------2-----------------2---------------|
E|4-4--4--4--4-4-4--4-4--4--4--4-4-4--0-0--0--0--0-0-0--0-0--0--0--0-0-0-----|
 ...     .  .....  ...     .  .....  ...     .  .....  ...     .  .....

2nd Verse Cont'd:
e|---------------------------------------------------------------------------|
B|---------------------------------------------------------------------------|
G|---------------------------------------------------------------------------|
D|-----6-----------------6-----------------2-----------------4-4-4-4---------|
A|-----6-----------------6-----------------2-----------------4-4-4-4---------|
E|4-4--4--4--4-4-4--4-4--4--4--4-4-4--0-0--0--0--0-0-0--2-2--2-2-2-2---------|
 ...     .  .....  ...     .  .....  ...     .  .....  ...

Repeat Pre Chorus
Repeat Chorus

Breakdown:  (2x)                             Strum lots:
e|-------------------------------------------|----------|--------------------|
B|-------------------------------------------|----------|--------------------|
G|-------------------------------------------|---11>----|--------------------|
D|-------------------------------------------|----x-----|--------------------|
A|2-2-2x--2-2-2--2-2-2--4-4-4x--4-4-4--6-6-6-|----9>----|2-2-2x--2-2-2--2-2-2|
E|0-0-0x--0-0-0--0-0-0--2-2-2x--2-2-2--4-4-4-|----------|0-0-0x--0-0-0--0-0-0|
 ..........................................             ....................

Breakdown Cont'd:
e|--------------|
B|--------------|
G|--------------|
D|--------------|
A|4-4-4x--------|
E|2-2-2x--------|

Repeat Chorus
Outro:  Repeat Intro 2x

Outro Cont'd:  (Ska-ish strumming)  (2x)
e|--------------------------------------|-----------------|
B|--------------------------------------|-----------------|
G|-11-----9---8-------------------------|-----------------|
D|--x-----x---x-------------------------|-----------------|
A|--9-----7---6-------------------------|--6-6x--6-6x-----|
E|--------------------------------------|--4-4x--4-4x-----|

GUITAR 2'S PARTS:
-----------------

Intro:  (Play Guitar 1's intro part, you'll be able to tell what part)

Verse:
e|---------------------------------------------------------------------------|
B|---------------------------------------------------------------------------|
G|---------------------------------------------------------------------------|
D|-6~----2~----6~----2~---9-9-9-9-9-9-9-9-9-9--------------------------------|
A|-6~----2~----6~----2~---7-7-7-7-7-6-6-6-6-6--------------------------------|
E|-4~----0~----4~----0~------------------------------------------------------|

Verse Cont'd:
e|---------------------------------------------------------------------------|
B|---------------------------------------------------------------------------|
G|-----------------------------------------------------------9---------------|
D|-----6-----------------6-----------------2-----------------9---------------|
A|-----6-----------------6-----------------2--7--7-7-7--7-7--7--7--7-7-7-----|
E|4-4--4--4--4-4-4--4-4--4--4--4-4-4--0-0--0---------------------------------|
 ...     .  .....  ...     .  .....  ...     .  .....  ...     .  .....

Verse Cont'd:
e|---------------------------------------------------------------------------|
B|---------------------------------------------------------------------------|
G|-----------------------------------------9---------------------------------|
D|-----6-----------------6-----------------9-----------------4-4-4-4---------|
A|-----6-----------------6------------7-7--7--7--7-7-7-------4-4-4-4---------|
E|4-4--4--4--4-4-4--4-4--4--4--4-4-4--------------------2-2--2-2-2-2---------|
 ...     .  .....  ...     .  .....  ...     .  .....  ...

Pre Chorus:  (Ska-ish strumming)
e|--------------------------------|
B|--------------------------------|
G|-----------4--4--4--4--4--------|
D|4-4--4--4--4--4--4--4--4-2~-----|
A|1-1--1--1--2--2--2--2--2-2~-----|
E|-------------------------0~-----|

Chorus:  (You figure out strumming)
e|-------------------------|
B|-------------------------|
G|-4---------4-------------|
D|-4----2----4---2--4------|
A|-2----2----2---2--4------|
E|------0--------0--2------|

Chorus Cont'd:  (Repeat lots)    End of Chorus:
e|-----------------------------|--------------|
B|-----------------------------|--------------|
G|-----------------------------|--------------|
D|-----9---8h9-----9---8h9-----|--2--2--4~----|
A|-9-9---9-----9-9---9---------|--2--2--4~----|
E|-----------------------------|--0--0--2~----|
  ...   .     ...   .

Repeat Intro
2nd Verse:  Repeat 2nd Part of 1st Verse for all of the verse
Repeat Pre Chorus
Repeat Chorus

Breakdown:  (4x)                               (Play 5th time)
e|--------------------------------------------|--------------------|
B|--------------------------------------------|--------------------|
G|--------------------------------------------|--------------------|
D|--------------------------------------------|--------------------|
A|2-2-2x--2-2-2--2-2-2--4-4-4x--4-4-4--6-6-6--|2-2-2x--2-2-2--2-2-2|
E|0-0-0x--0-0-0--0-0-0--2-2-2x--2-2-2--4-4-4--|0-0-0x--0-0-0--0-0-0|
 .........................................    ....................

Repeat Chorus
Outro:  (Repeat Intro)


Текст, аккорды и табулатура для песни "Why Wait", исполняет "Rufio".
Используемые в песне аккорды можно найти в разделе Как брать аккорды. Аккорды для шестиструнной гитары. Другие песни можно найти на нашем сайте, воспользовавшись алфавитным указателем вверху страницы.


 
Ошибка в тексте? Выделите ошибку и нажмите Ctrl+Enter