-------------------------------------------------------------------------------
			     ONE SLOWDANCE - RUFIO
-------------------------------------------------------------------------------

By: David

Intro Guitar 1:
e|---------------------------------------------------------------------------|
B|-------4-------------------------------------------------------------------|
G|-----4---4----------1------------4---------------------4------------3------|
D|---4-------4------2---2--------6---6-----------------6---6--------4---4----|
A|-2--------------2-------2----6-------6-------------6-------6----4-------4--|
E|--------------0------------4------------(2)-(0)--4------------2------------|
cont...
e|-------------------.||--2--------------------------------------------------|
B|-------------------.||--2--(second ending)---------------------------------|
G|-----4-4--------3--.||--3--------------------------------------------------|
D|---4----------4----.||--4--------------------------------------------------|
A|-2----------4------.||--4--------------------------------------------------|
E|----------2--------.||--2--------------------------------------------------|

Intro Guitar 2: Figure out the timing, play twice
e|---------------------------------------------------------------------------|
B|---------------------------------------------------------------------------|
G|---------------------------------------------------------------------------|
D|----------------------4----4-2-1-2-1---------------------------------------|
A|-2---1/2--4--2--1---2---4------------4---2---1/2--4--2--1----2----1--------|
E|---------------------------------------------------------------------------|

Verse Guitar 1: Pretty much just casual hitting of the chords
e|-------------------0-0-0---------4-4-4---------2-2-2-----------------------|
B|-----4-4-4---------0-0-0---------4-4-4---------2-2-2-----------------------|
G|-----4-4-4---------1-1-1---------4-4-4---------3-3-3-----------------------|
D|-----4-4-4---------2-2-2---------6-6-6---------4-4-4-----------------------|
A|-2-2-2-2-2---------2-2-2---------6-6-6---------4-4-4-----------------------|
E|---------------0-0-0-0-0-----4-4-4-4-4-----2-2-2-2-2-----------------------|

Verse Guitar 2: Right except i'm not sure about the first notes
e|---------------------------------------------------------------------------|
B|------13---------------13---------------13--------------13-----------------|
G|---11-----11--------11----11---------11----11--------11----11--------------|
D|-9-----------9----9----------9-----9----------9----9----------9------------|
A|----------------7---------------11---------------9-------------------------|
E|---------------------------------------------------------------------------|

Build Up Guitar 1: Kinda similar to intro, with distortion
e|---------------------------------------------------------------------------|
B|---------------------------------------------------------------------------|
G|----------------------------------------4-4-4------------------------------|
D|-2-2-2-2-2-2--4-4-4-4-4-4--6-6-6-6-6-6--4-4-4--4-4-4--2-2-2-2-2-2----------|
A|-2-2-2-2-2-2--4-4-4-4-4-4--6-6-6-6-6-6--2-2-2--4-4-4--2-2-2-2-2-2----------|
E|-0-0-0-0-0-0--2-2-2-2-2-2--4-4-4-4-4-4---------2-2-2--0-0-0-0-0-0----------|
  p.m...................................
continued...
e|---------------------------------------------------------------------------|
B|---------------------------------------------------------------------------|
G|---------------------------------------------------------------------------|
D|-4-4-4-4-4-4--6-6-6-6-6-6--4-4-4-4-4-4-------------------------------------|
A|-4-4-4-4-4-4--6-6-6-6-6-6--4-4-4-4-4-4-------------------------------------|
E|-2-2-2-2-2-2--4-4-4-4-4-4--2-2-2-2-2-2-------------------------------------|

Build Up Guitar 2:
e|---------------------------------------------------------------------------|
B|---------------------------------------------------------------------------|
G|---------------------------------------------------------------------------|
D|-2-2-2-2-2-2--4-4-4-4-4-4--6-6-6-6-6-6----4------4-------------------------|
A|-2-2-2-2-2-2--4-4-4-4-4-4--6-6-6-6-6-6--2---2--2---2-----------------------|
E|-0-0-0-0-0-0--2-2-2-2-2-2--4-4-4-4-4-4-------------------------------------|
  p.m...................................
continued...Go back into the intro lead except faster...
e|---------------------------------------------------------------------------|
B|---------------------------------------------------------------------------|
G|---------------------------------------------------------------------------|
D|----------------------4----4-2-1-2-1---------------------------------------|
A|-2---1/2--4--2--1---2---4------------4---2---1/2--4--2--1----2----1--------|
E|---------------------------------------------------------------------------|

Chorus Guitar 1:
e|---------------------------------------------------------------------------|
B|---------------------------------------------------------------------------|
G|-4-4-4-4-4-4---------------------------------------------------------------|
D|-4-4-4-4-4-4-----2-2-2-2-2-2-----6-6-6-6-6-6-----4-4-4-4-4-4---------------|
A|-2-2-2-2-2-2-----2-2-2-2-2-2-----6-6-6-6-6-6-----4-4-4-4-4-4---------------|
E|-----------------0-0-0-0-0-0-----4-4-4-4-4-4-----2-2-2-2-2-2---------------|
palm mute part of it the second time...

Chorus Guitar 2:
e|----------------------------------------|----------------------------------|
B|----------------------------------------|p.m first two chords then---------|
G|-8-8-6-4-4-4--8-8-8-8-8-8--6-6-6-6-6-6--|-8-8-8-8-8-8--6~------------------|
D|-x-x-x-x-x-x--x-x-x-x-x-x--x-x-x-x-x-x--|-x-x-x-x-x-x--x~------------------|
A|-6-6-4-2-2-2--6-6-6-6-6-6--4-4-4-4-4-4--|-6-6-6-6-6-6--4~------------------|
E|----------------------------------------|----------------------------------|

Second Verse Guitar 1: cool rhythm
e|---------------------------------------------------------------------------|
B|---------------------------------------------------------------------------|
G|-4--4-4-4-4--4-------------------------------------------------------------|
D|-4--4-4-4-4--4---2-2-2--2---6--6-6-6-6--6---4-4-4--4-----------------------|
A|-2--2-2-2-2--2---2-2-2--2---6--6-6-6-6--6---4-4-4--4-----------------------|
E|-----------------0-0-0--0---4--4-4-4-4--4---2-2-2--2-----------------------|
  p.m........      .....      ..........      .....

Second Verse Guitar 2: same as verse 1

Second Chorus Guitar 1: same as chorus 1

Second Chorus Guitar 2: same as chorus 1

Bridge Guitar 1: after second chorus
e|---------------------------------------------------------------------------|
B|---------------------------------------------------------------------------|
G|-4-4-4-4-4-4--6-6-6-6-6-6--------------------------------------------------|
D|-4-4-4-4-4-4--6-6-6-6-6-6--4-4-4-4-4-4--2-2-2-2-2-2------------------------|
A|-2-2-2-2-2-2--4-4-4-4-4-4--4-4-4-4-4-4--2-2-2-2-2-2------------------------|
E|---------------------------2-2-2-2-2-2--0-0-0-0-0-0------------------------|

Bridge Guitar 2:
e|------------------------------------------------------------|---------------|
B|------------------------------------------------------------|---------------|
G|-6-6-6-6-6-6--9-9-9-9-9-9--8-8-811-11-11--6-6-611-11-11-3x|--15-----------|
D|-x-x-x-x-x-x--x-x-x-x-x-x--x-x-x-x--x--x--x-x-x-x--x--x---|--xx-repeat!---|
A|-4-4-4-4-4-4--7-7-7-7-7-7--6-6-6-9--9--9--4-4-4-9--9--9---|--13-----------|
E|------------------------------------------------------------|---------------|

Repeat Chorus

Outro Guitar 1: play twice
e|----------------------------------------------------------------------------|
B|----------------------------------------------------------------------------|
G|-4--4-------------------------4--4------------------------------------------|
D|-4--4--2--2-2--6--6-----------4--4--2--2-2--6--6----------------------------|
A|-2--2--2--2-2--6--6-----------2--2--2--2-2--6--6----------------------------|
E|-------0--0-0--4--4---0-2-----------0--0-0--4--4---0-2----------------------|

Outro Guitar 2: start second time through
e|----------------------------------------------------------------------------|
B|----------------------------------------------------------------------------|
G|----------------------------------------------------------------------------|
D|-4-4-4-4-4-4-4-4-4-4-4-4-4-4-4-4-4-4-2-2-2-1-1-1----------------------------|
A|-------------------------------------------------4-4-4----------------------|
E|----------------------------------------------------------------------------|
  p.m...................................................

Outro Guitar 1 continued: play twice
e|----------------------------------------------------------------------------|
B|----------------------------------------------------------------------------|
G|-4-4-4-4-4-4----------------------------------------------------------------|
D|-4-4-4-4-4-4--2-2-2-2-2-2--6-6-6-6-6-6--2-2-2-4-4-4-------------------------|
A|-2-2-2-2-2-2--2-2-2-2-2-2--6-6-6-6-6-6--2-2-2-4-4-4-------------------------|
E|--------------0-0-0-0-0-0--4-4-4-4-4-4--0-0-0-2-2-2-------------------------|
  p.m................................................

Outro Guitar 2 continued: play twice
e|---------------------------------------------------------------------------|
B|---------------------------------------------------------------------------|
G|-------4------------4------------4------------4----------------------------|
D|---------4------------4------------4------------4--------------------------|
A|-2-2-2-----2------------2------------2------------2------------------------|
E|--------------0-0-0--------4-4-4--------2-2-2------------------------------|
  p.m................................................

Outro Guitar 1 ending: part after bar is second ending
e|-----------------------------------------------------------------|---------|
B|-----------------------------------------------------------------|---------|
G|-8--8--6--4--4--6--8--8--6--4--4--6--8--8--6--4--4--6---8-8-815-|-8-8-8/6-|
D|-x--x--x--x--x--x--x--x--x--x--x--x--x--x--x--x--x--x---x-x-xxx-|-x-x-x/x-|
A|-6--6--4--2--2--4--6--6--4--2--2--4--6--6--4--2--2--4---6-6-613-|-6-6-6/4-|
E|-----------------------------------------------------------------|---------|

Outro Guitar 2 ending:
e|---------------------------------------------------------------------------|
B|---------------------------------------------------------------------------|
G|-11-11-9-8-8-9--11-11-9-8-8-9--11-11-9-8-8-9---11-11-1115-----------------|
D|--x--x-x-x-x-x---x--x-x-x-x-x---x--x-x-x-x-x----x--x--xxx-----------------|
A|--9--9-7-6-6-7---9--9-7-6-6-7---9--9-7-6-6-7----9--9--913-----------------|
E|---------------------------------------------------------------------------|
continued...
e|---------------------------------------------------------------------------|
B|---------------------------------------------------------------------------|
G|-16-16-15-16-16-15-16-16-18-20-20-21-21212121212120202020202018181818181816|
D|-xx-xx-xx-xx-xx-xx-xx-xx-xx-xx-xx-xx-xxxxxxxxxxxxxxxxxxxxxxxxxxxxxxxxxxxxxx|
A|-14-14-13-14-14-13-14-14-16-18-18-19-19191919191918181818181816161616161614|
E|---------------------------------------------------------------------------|



Текст, аккорды и табулатура для песни "One Slowdance", исполняет "Rufio".
Используемые в песне аккорды можно найти в разделе Как брать аккорды. Аккорды для шестиструнной гитары. Другие песни можно найти на нашем сайте, воспользовавшись алфавитным указателем вверху страницы.


Слушать онлайн One Slowdance


RufioOne Slowdance на Яндекс.Музыке


 
Ошибка в тексте? Выделите ошибку и нажмите Ctrl+Enter