SIGNS OF LIFE
Roxette  -  Tourism  (1990)

e-|---------------------------10--12h14-(14)p12--10p0---7h10------------|
B-|---------------------------------------------------------------------|
G-|---------------------------------------------------------------------|
D-|-------------------------------------------------------------------------|
A-|-----------------------------------------------------------------W.Bar---|
E-|-0-----0-0-0-0-0----------------------------------------------0-(-1)-/0-|

e-|-----10--12h14-(14)p12--10p0---7h10-/(12)10-7-----------------------|
B-|---------------------------------------------------------------------|
G-|---------------------------------------------------------------------|
D-|-------------------------------------------------------------------------|
A-|-------------------------------------------------------------------------|
E-|-------------------------------------------------------------------------|

e-|----------------------0---0----0--------------------------------------|
B-|-----13---(0)----13-------3/5--5/(.5)5---(5)p3-----------------------|
G-|------------(0)---------------------------------4-2p0---------------|
D-|------------------------------------------------------------2p0-----------|
A-|----------------------------------------------------------------2p1p0-----|
E-|----------------------------------------------------------------------3-0-|

e-|--------------------------------------------------------------------------|
B-|-15/(17)=====>(17)15p12----15-15-15/(17)======>((17)15p12)--------------|
G-|-------------------------14-----------------------------------------------|
D-|--------------------------------------------------------------------------|
A-|--------------------------------------------------------------------------|
E-|--------------------------------------------------------------------------|

e-|----------------------------12--------------------------------------------|
B-|-15/(17)=====>(17)-12----15----12-(11)/-12----(0)-----------------------|
G-|----------------------14----------W.Bar-----------------------------------|
D-|--------------------------------------------------------------------------|
A-|--------------------------------------------------------------------------|
E-|--------------------------------------------------------------------------|

e-|----1210--10--107--7--75--75--3--2/(3)2--0--(-2)/0--0---------------|
B-|---------------------------------------W.Bar------W.Bar------------------|
G-|-------------------------------------------------------------------------|
D-|----1412--12--129--9--97--97--5--4/(5)4--2---(0)/2--2----(2)------|
A-|--------------------------------------------------------------------0----|
E-|-12(Fretwith Thumb)------------------------------------------------------|

e-|------------------------------------------------||
B-|------------------------------------------------||
G-|-2/(3)2p0---2-0--------------------------------||
D-|-----------2-----2p0----------------------------||
A-|---------------------2p1p0----------------------||
E-|---------------------------3-0-(-2)/-0---------||


Текст, аккорды и табулатура для песни "Signs Of Life", исполняет "Roxette".
Используемые в песне аккорды можно найти в разделе Как брать аккорды. Аккорды для шестиструнной гитары. Другие песни можно найти на нашем сайте, воспользовавшись алфавитным указателем вверху страницы.


 
Ошибка в тексте? Выделите ошибку и нажмите Ctrl+Enter