EMPTY HOLES

E|-----------------|-------------------|---------------------|---------|
B|----5------------|--7----------------|----8----------------|--7------|
G|-----------------|-------------------|---------------------|---------|
D|-----------------|-------------------|---------------------|---------|
A|-----------------|-------------------|---------------------|---------|
E|-----------------|-------------------|---------------------|---------|

E|-------------------|-----------------|--------------------|----------|
B|----5p7--7b9----7--|----5------------|--------------------|----------|
G|-------------------|-----------------|--------------------|----------|
D|-------------------|-----------------|--------------------|----------|
A|-------------------|-----------------|--------------------|----------|
E|-------------------|-----------------|--------------------|----------|

E|----------|---------------------------------------------------|-------|
B|----------|----5------------------------/5--------------------|----7--|
G|----------|---------------------------------------------------|-------|
D|----------|---------------------------------------------------|-------|
A|----------|---------------------------------------------------|-------|
E|----------|---------------------------------------------------|-------|

E|--------------------------------|------------------------------------|
B|--------------------------5--7--|--8------------------7--------------|
G|--------------------------------|------------------------------------|
D|--------------------------------|------------------------------------|
A|--------------------------------|------------------------------------|
E|--------------------------------|------------------------------------|

E|---------------|-----------------------------|----------------------|
B|------------7--|--7h--9----------------------|----------------------|
G|---------------|-----------------------------|----------------------|
D|---------------|-----------------------------|----------------------|
A|---------------|-----------------------------|----------------------|
E|---------------|-----------------------------|----------------------|

E|------------------------------|--------------------------|----------|
B|------------------------------|--------------------------|----------|
G|------------------------------|--------------------------|----------|
D|------------------------------|--------------------------|----------|
A|------------------------------|--------------------------|----------|
E|------------------------------|--------------------------|----------|

E|----------||----19--------------19p17----19--------|--19------19b20--|
B|----------||---------------------------------------|-----------------|
G|----------||---------------------------------------|-----------------|
D|----------||---------------------------------------|-----------------|
A|----------||---------------------------------------|-----------------|
E|----------||---------------------------------------|-----------------|

E|------19------------|------14-------------------|-------------------|
B|--------------------|------------------17p14----|--17b19------------|
G|--------------------|---------------------------|-------------------|
D|--------------------|---------------------------|-------------------|
A|--------------------|---------------------------|-------------------|
E|--------------------|---------------------------|-------------------|

E|--17------17/19----|--19--------------19p18----------|----19----18--|
B|-------------------|---------------------------------|--------------|
G|-------------------|---------------------------------|--------------|
D|-------------------|---------------------------------|--------------|
A|-------------------|---------------------------------|--------------|
E|-------------------|---------------------------------|--------------|

E|--19--------19--|--14-----------------------------|-----------------|
B|----------------|----------------------17p14------|--17b19------17--|
G|----------------|---------------------------------|-----------------|
D|----------------|---------------------------------|-----------------|
A|----------------|---------------------------------|-----------------|
E|----------------|---------------------------------|-----------------|

E|------------------14b16----|--14------------15--------17------------|
B|---------------------------|----------------------------------------|
G|---------------------------|----------------------------------------|
D|---------------------------|----------------------------------------|
A|---------------------------|----------------------------------------|
E|---------------------------|----------------------------------------|

E|----------17/19--|--19------19--19--------------|--------------------|
B|-----------------|------------------------------|--------------------|
G|-----------------|------------------------------|--------------------|
D|-----------------|------------------------------|--------------------|
A|-----------------|------------------------------|--------------------|
E|-----------------|------------------------------|--------------------|

E|----17/19--19--------------------------|----------------------------|
B|---------------------------------------|----------------------------|
G|---------------------------------------|----------------------------|
D|---------------------------------------|----------------------------|
A|---------------------------------------|----------------------------|
E|---------------------------------------|----------------------------|

                        what shall we         use              to
E|----------------------||---------------------|-----------------------|
B|----------------------||---------------------|-----------------------|
G|----------------------||---------------------|-----------------------|
D|----------------------||---------------------|-----------------------|
A|----------------------||---------------------|-----------------------|
E|----------------------||--0------------------|--2--------------------|

       fill                 the       empty
E|----|----------------------------------------------------------------|
B|----|----------------------------------------------------------------|
G|----|----------------------------------------------------------------|
D|----|----------------------------------------------------------------|
A|----|----------------------------------------------------------------|
E|----|--3--------------------------------2----------------3--2p----0--|


          spaces         where             you used    to lie
E|------|-------------------------------------------------------------|
B|------|-------------------------------------------------------------|
G|------|-------------------------------------------------------------|
D|------|-------------------------------------------------------------|
A|------|-------------------------------------------------------------|
E|------|----0------------2----------------------2----3---------------|

                            how           shall I                 fill
E|------------------------|--------------------------------------------|
B|------------------------|--------------------------------------------|
G|------------------------|--------------------------------------------|
D|------------------------|--------------------------------------------|
A|------------------------|--------------------------------------------|
E|----------3--2p----0----|--0----------------------------2------------|

the   final places                                how should I
E|----|------------------------------------|--------------------------|
B|----|------------------------------------|--------------------------|
G|----|------------------------------------|--------------------------|
D|----|------------------------------------|--------------------------|
A|----|------------------------------------|--------------------------|
E|----|--3----2--------2h3------2----------|--xh0--------------2------|


        complete Joyride
E|--------------------------|
B|--------------------------|
G|--------------------------|
D|--------------------------|
A|--------------------------|
E|------------3----------2--|


Текст, аккорды и табулатура для песни "Empty Spaces", исполняет "Roxette".
Используемые в песне аккорды можно найти в разделе Как брать аккорды. Аккорды для шестиструнной гитары. Другие песни можно найти на нашем сайте, воспользовавшись алфавитным указателем вверху страницы.


 
Ошибка в тексте? Выделите ошибку и нажмите Ctrl+Enter