Submitted By George Tmpakidis


Riff 1 :with accoustic guitar
                   
|--------------------------------------------------------|
|--------------------------------------------------------|
|--------------------------------------------------------|
|-----4-4-2-2-0h2----4-4-2-2-0h2-------------------------|
|--------------------------------------------------------|
|--0---------------0-------------------------------------|

|--------------------------------------------------------|
|--------------------------------------------------------|
|--------------------------------------------------------|
|----4-4-2-2-0h2-----------------------------------------|
|-------------------4-4-0-2-0----------------------------|
|--0--------------0--------------------------------------|

Fill 1: c5 d5

riff 2:the main one played four times and then under the 1st melody
|--------------------------------------------------------|
|--------------------------------------------------------|
|--------------------4-----------------------------------|
|2-222-2---7-7-7-7---5-----------------------------------|
|2-222-2---7-7-7-7---5-----------------------------------|
|0-000-0-------------------------------------------------|

 Every fourth time after the first five em chords play this
|--------------------------------------------------------|
|--------------------------------------------------------|
|--------------------------------------------------------|
|-3-/-7-7-7---9-9-9--------------------------------------|
|-3-/-7-7-7---9-9-9--------------------------------------|
|-1-/-5-5-5---7-7-7--------------------------------------|


|--------------------------------------------------------|
|--------------------------------------------------------|
|--------------------------------------------------------|
|--2/4-4-4---4/5-5-5-4-----------------------------------|
|----------2---------------------------------------------|
|--------------------------------------------------------|

fill2:c5 b5

 Melody 2 (the cool one)
|---------------------------------------------------5----|
|--------------------------------------------------5--5--|
|-----4/5-5/4-0-4---4---4p2p0-4p2p0--9--9-7-0h2-2-4------|
|-(2)-------------2---2----------------------------------|
|--------------------------------------------------------|
|--------------------------------------------------------|
 play this note the first time only



|--------------------------------------------------------|
|--------------------------------------------------------|
|-----------------------6h9p6h7p6h9p6h7p6h9p6h7p6-9bu11--|
|--7/9-9-9-9----7--9-9-----------------------------------|
|------------9-------------------------------------------|
|--------------------------------------------------------|


|-7h10p7----7--------------------------------------------|
|--------10---10p7---7h10p7----7h10p7---7h10p7---7h10p7--|
|-------------------9--------9--------9--------9---------|
|--------------------------------------------------------|
|--------------------------------------------------------|
|--------------------------------------------------------|

a.h
|-----10bu12-bd10p7----7---------------------------------|
|---7---------------10---10p7---7-----12-----------------|
|-9---------------------------9---9p7--------------------|
|--------------------------------------------------------|
|--------------------------------------------------------|
|--------------------------------------------------------|

|-----------------------10------12-9-10-9---12-10--------|
|--------------10-12-13----12----------------------------|
|--------------------------------------------------------|
|--9p5h7-5-----------------------------------------------|
|----------7/9-------------------------------------------|
|--------------------------------------------------------|

|--------------------------------------------------------|
|--------------------------------------------------------|
|--------------------------------------------------------|
|12/11-11-9-9/11-12/11-11-9-9/11-11h14p11h12p11h14etc7bu9|
|--------------------------------------------------------|
|--------------------------------------------------------|


Rhythm under solo
|--------------------------------------------------------|
|--------------------------------------------------------|
|2h4-4-4--2h4-4-4-4--2h4-4-4-----------------------------|
|2h4-4-4--2h4-4-4-4--2h4-4-4--7/5-5-5-5------------------|
|0h2-2-2--0h2-2-2-2--0h2-2-2--7/5-5-5-5------------------|
|-----------------------------5/3-3-3-3------------------|


Текст, аккорды и табулатура для песни "A Dead Poem", исполняет "Rotting Christ".
Используемые в песне аккорды можно найти в разделе Как брать аккорды. Аккорды для шестиструнной гитары. Другие песни можно найти на нашем сайте, воспользовавшись алфавитным указателем вверху страницы.


 
Ошибка в тексте? Выделите ошибку и нажмите Ctrl+Enter