#----------------------------------PLEASE NOTE--------------------------------#
#This file is the author's own work and represents their interpretation of the#
#song. You may only use this file for private study, scholarship, or research.#
#-----------------------------------------------------------------------------#

Date: Tue, 28 Apr 1998 16:25:34 +0200
From: Cidric Joubert 
Subject: r/roth_david_lee/just_like_paradise.tab

================================================================================
         Title : Just Like Paradise
        Artist : David LEE ROTH   Guitar: Steve VAI
         Album : SKYSCRAPER
================================================================================
         from  : Cedric JOUBERT (FRANCE)
         e-mail: [email protected]
[email protected]===============

Legend
------

 h  = hammer-on
 p  = pull-off
 b  = bend
 r  = bend release
 /  = slide up
   = slide down
 = natural harmonic
{5} = artifical harmonic
 ~  = vibrato
 tr = trill
 W/bar = Tremolo Bar
 PM    = Palm Muting

E|----|-------|------------|----0--|-------|-17----17--19--15--17------|
B|----|-------|------------|-3--3--|------|-----------------------19-|
G|---|-2-----|---7-6------|-4--2--|-2-----|---------------------------|
D|---|-2-----|-------7----|-5--4--|-2-----|---------------------------|
A|----|-0-----|----------0-|-------|-0-----|---------------------------|
E|----|-------|------------|-------|-------|---------------------------|


E|----------------------------------------------------14h15h|17/21~-21-|
B|-15--17b19----r--p15--17~----(5)/-(12)-(10)-15h17-------|-----------|
G|----------------------------------------------------------|-----------|
D|----------------------------------------------------------|-----------|
A|----------------------------------------------------------|-----------|
E|----------------------------------------------------------|-----------|


                                                    Harmoniser      PM-

E|-19--17/-22--19b21--r-p17---------|-22p17---------------------|------|
B|---------------------------20b22--|-------20p17---------------|-3----|
G|----------------------------------|-------------19b21~~------|-2----|
D|----------------------------------|---------------------------|-0--0-|
A|----------------------------------|---------------------------|------|
E|----------------------------------|---------------------------|------|


  PM-------------------------

E|---------------------------|--------------------------------------------|
B|---------------------------|-3--3---------------------------------------|
G|---------------------------|-2--2---------------------------|
D|-0-0-0-0-0-0-0-0-0-0-0-0-0-|-0----0----------------------------|
A|---------------------------|--------------------------------------|
E|---------------------------|--------------------------------------------|


                                                                   PM---

E|---|----------------------|----------------------------------|--------|
B|---|-3--2---10--10--10-10-|----------------------------------|-3------|
G|---|-2--2----9---9---9--9-|---7-{9}b11--r-7-{9}b11--r--------|-2------|
D|---|-2--2----7---7---7--7-|--------------------------7-5b7---|-0--0-0-|
A|-0-|----------------------|----------------------------------|--------|
E|---|----------------------|----------------------------------|--------|


   PM---------------------

E|------------------------|-3--2---------------------------------|
B|------------------------|-3--3---------------------------------|
G|------------------------|-2--2---------------------------|
D|-0-0-0-0-0-x-0--0-0-0-0-|-0----0----------------------------------|
A|------------------------|--------------------------------------------|
E|------------------------|--------------------------------------------|


                       W/bar 

E|---|-------------------------|---------7-5-5-3/-7-|----------------|
B|---|-3--2---10--10----------|---------5-3-3-1/-5-|--0------0---0--|
G|---|-2--2---------9----------|-2--2-----------------|-----2-2---2----|
D|---|-2--2----7---7--{7}-----|-2--2/-7-7-5-5-3/-7-|----------------|
A|-0-|-------------------------|-0--------------------|----------------|
E|---|-------------------------|----------------------|----------------|


                       PM-----

E|-0-------|-------------------0--------|--------------------0---|------|
B|---0-----|----0----------------0------|----------------------0-|------|
G|------2--|------2-2--4-2-4-4-----2----|-0--0-0-0h2--4-2-4------|--/-7-|
D|---------|--------------------------2-|------------------------|------|
A|---------|-0--------------------------|------------------------|------|
E|---------|----------------------------|------------------------|------|


E|-7---7/-9---9/-10--------12--------14/-16--|---------|-----------|
B|--------------------------------------------|-3---3---|--------------|
G|---7------9-------11/-13----13/-14----------|-0---2---|-2---------------|
D|--------------------------------------------|-2---4---|-2---------------|
A|--------------------------------------------|-0---0---|-0---------------|
E|--------------------------------------------|---------|-----------------|


E|-----------------------|---------|----------9----{9}---{7}-{5}-{5}--|
B|--------------------|-3---3---|-----------------------------------|
G|-----------------|-0---2---|-2---7/-9----9---------------------|
D|-----------------|-2---4---|-2---------------------------------|
A|---------------------0-|-0---0---|-0---------------------------------|
E|-----------------------|---------|-----------------------------------|


E|---------|-------------------------------|---------|-----17-14-|
B|-3---3---|-------------------------------|-3---3---|-----15-12-|
G|-0---2---|-2-----------------------------|-0---2---|-2----------|
D|-2---4---|-2-----------------|-2---4---|-2----------|
A|-0---0---|-0-----------------------------|-0---0---|-0----------|
E|---------|-------------------------------------|---------|------------|


                PM---------------------------           PM  PM

E--14-------|--------------------------------|-3--2---5----5---5-5----|
B--12--12--|-3------------------------------|-3--3---5----5---5-5----|
G-----------|-2------------------------------|-2--2---7--7---7-----7--|
D-----------|-0--0-0-0-0-0-0-0-0-0-0-0-0-0-0-|-0----------------------|
A-----------|--------------------------------|------------------------|
E-----------|--------------------------------|------------------------|


                                    PM---   W/bar /        PM---------

E|--------12--12--12--12-|--------3-------------------|----------------|
B|-3--2---10--10--10--10-|----2---3-------------------|---3------------|
G|-2--2----9---9---9---9-|-4--2---0-------------------|---2------------|
D|-2--2------------------|-2--------------------------|---0--0-0-0-0-0-|
A|-----------------------|-0--0-----------------------|----------------|
E|-----------------------|----------3-3-3-{3}b5-------|----------------|


   PM----------------

E|---------5---5-----|-3--2-------------------------------------------|
B|---------5---5-----|-3--3-------------------------------------------|
G|-------------------|-2--2-------------------------------------|
D|-0-0-0-0-0-0-0-0-0-|-0----------------------------------|
A|-------------------|------------------------------------|
E|-------------------|------------------------------------------------|


E|----------------------|------------------------------|---------------|
B|-3--2---10--10--10-10-|-----------12----12----12-----|----0------0---|
G|-2--2----9---9---9--9-|-2---12-12-12----12----12-----|-------2-2---2-|
D|-2--2----7---7---7--7-|-2---17-17----14----12----11-|---------------|
A|-0--------------------|-0----------------------------|---------------|
E|----------------------|------------------------------|-2-------------|


E-----0-------|-----------------0--------|-------------------0--------|
B-0-0---0-----|---------0---0-0---0------|-----------0---0-0---0------|
G----------2--|-----2-2---2---------0--0-|-------2-2---2----------2---|
D-------------|--------------------------|----2-----------------------|
A-------------|-0------------------------|----------------------------|
E-------------|--------------------------|-3--------------------------|


E|------7------9-------10--------12--------14/-16--|--------|------|
B|--------------------------------------------------|-3---3--|---------|
G|--/-9---7/-9---9/-11----11/-13----13/-14----------|-0---2--|-2-------|
D|--------------------------------------------------|-2---4--|-2-------|
A|--------------------------------------------------|-0---0--|-0-------|
E|--------------------------------------------------|--------|---------|


                                                              W/bar//

E|----------------------------|--------|----------9b11--r-p75-75--|
B|-------------------------|-3---3--|----------------------------|
G|-------------------------|-0---2--|-2----/-9-------------------|
D|-------------------------|-2---4--|-2--------------------------|
A|-----------------------------x-|-0---0--|-0--------------------------|
E|-------------------------------|--------|----------------------------|


                    Delay - - - - - - - - - - - - -             W/bar 

E|-5-|--------|--------------------------------------|--------|--------|
B|---|-3---3--|--------------------------|-3---3--|--------|
G|---|-0---2--|-2------------------------------|-0---2--|-2------|
D|---|-2---4--|-2------------------------------|-2---4--|-2---9--|
A|---|-0---0--|-0------------------------------------|-0---0--|-0------|
E|---|--------|--------------------------------------|--------|--------|


            SOLO                                 N.H.

E|--21~---|--------------------------|----------------------------------|
B|--------|--12b14~-----12b13--r-p9--|----------------------------------|
G|--------|--------------------------|-11b13--r-b2---11--r--9-11-9~-----|
D|--------|--------------------------|-------------------------------11-|
A|--------|--------------------------|----------------------------------|
E|--------|--------------------------|----------------------------------|


                     W/bar 

E|---|----------------------------------|-------------------------------|
B|---|----------------------------------|-14b16--r-p12------------------|
G|---|----------------------------------|--------------13p119-11h9h11p-|
D|-9-|----------------------------------|-------------------------------|
A|---|119-7-9-{7}b9--r-b2--------------|-------------------------------|
E|---|------------------------7-x-7-7/9~|-------------------------------|


          Delay - - - - - - - - - - - - - - - - - - - - - - - - - - - -
-

E|------|-------9h12--------11h14-----14h17-----16h19-|------16--17--19-|
B|------|----10----------12--------14--------16--------|--17-------------|
G|-9/11~|-11----------13-------------------------------|-----------------|
D|------|----------------------------------------------|-----------------|
A|------|----------------------------------------------|-----------------|
E|------|----------------------------------------------|-----------------|


  - - - - - - - Delay + Harmoniser -  - - - -

E|-17-16-------|--------------9/-14-9/-21---|--------|-----------|
B|-------17----|-----------14----------------|-3---3--|--------------|
G|----------16-|-11-4/-11-------------------|-0---2--|-2---------------|
D|-------------|-----------------------------|-2---4--|-2---------------|
A|-------------|-----------------------------|-0---0--|-0---------------|
E|-------------|-----------------------------|--------|-----------------|


                                    W/bar /            T T    T    T

E|----------------------|--------|-------------------------------------|
B|-------------------|-3---3--|----{14}---12--r--p0h10------12p0h10-|
G|----------------|-0---2--|-2----------------------11p9---------|
D|----------------|-2---4--|-2-----------------------------------|
A|----------------------|-0---0--|-0-----------------------------------|
E|----------------------|--------|-------------------------------------|


   T    T    T  T                         Delay - - - - - - - - - - - -
-

E|-------------------------|--------|-------------------------------------|
B|------12p0h10------------|-3---3--|-------------------------------|
G|-11p9---------11p9-------|-0---2--|-2-----------------------------|
D|-------------------------|-2---4--|-2-----------------------------------|
A|-------------------4p2p0-|-0---0--|-0-----------------------------|
E|-------------------------|--------|-------------------------------|


E|--|--------|----1412-129-97-75-75--|--------|---------------------|
B|--|-3---3--|----------------------------|-3---3--|---------|
G|--|-0---2--|-2--------------------------|-0---2--|-2-------------------|
D|--|-2---4--|-2--------------------------|-2---4--|-2-------------------|
A|--|-0---0--|-0--1412-129-97-75-75--|-0---0--|-0-------------------|
E|--|--------|----------------------------|--------|---------------------|


E|------------------|--------|----------------------|-|
B|------------------|-3---3--|-----12-10-10-12/-17--|-|
G|------------|-0---2--|-2--------------------|-|
D|------------|-2---4--|-2--------------------|-|
A|------------------|-0---0--|-0--------------------|-|
E|------------------|--------|----------------------|-|


Текст, аккорды и табулатура для песни "Just Like Paradise", исполняет "Roth David Lee".
Используемые в песне аккорды можно найти в разделе Как брать аккорды. Аккорды для шестиструнной гитары. Другие песни можно найти на нашем сайте, воспользовавшись алфавитным указателем вверху страницы.


 
Ошибка в тексте? Выделите ошибку и нажмите Ctrl+Enter