artist: Rootlifter
title: Sombre
album: not yet established
music and lyrics by: sean carver

INTRO/OUTRO/VERSE:

e:------------------------
b:------------------------
d:------------------------ just keep repeating
g:----0-----0-----3-----2-
a:--2-----0-----0-----0---
e:3-----2-----1-----0-----

VERSE WITH 2ND GUITAR:

e:0---0---0---0-
b:0---0---0---0-
d:7---6---5---4-  keep repeating that!
g:--------------
a:--------------
e:--------------

CHORUS:

e:3-2-2-2-2-2-2-2--1-3-0-0-0-0-0-0--3-3-1-1-0-0-
b:5-4-2-2-2-2-2-2--3-5-0-0-0-0-0-0--3-3-1-1-0-0-
d:5-4-4-4-4-4-4-4--3-5-0-0-0-0-0-0--5-5-3-3-0-0-
g:5-4-4-4-4-4-4-4--3-5-2-2-2-2-2-2--5-5-3-3-2-2-
a:3-2-4-4-4-4-4-4--1-3-2-2-2-2-2-2--5-5-3-3-2-2-
e:----2-2-2-2-2-2------0-0-0-0-0-0--3-3-1-1-0-0-

INTERLUDE PART 1:

e:--------------------
b:--------------------
d:-------------------- repeat 8x
g:--------------------
a:0-0-0-0-0-0-0-0-0-0-
e:1-2-3-2-0-1-2-3-2-0-

INTERLUDE PART 2:

e:------0---------0---
b:------0---------0---
d:1-2-3-0-0-1-2-3-0-5-
g:1-2-3-0-2-1-2-3-0-5-
a:1-2-3-0-2-1-2-3-0-5-
e:1-2-3-0-0-1-2-3-0-5-


LYRICS:

no one needs to know,
no one needs to worry,
no one needs to waste their time,
no one really cares anyway...

would you still smile,
if you saw me shaking,
crying in the corner,
would you still laugh,
if you saw me bleed...
would you still shout,
if you felt my tears,
dripping on your shoulder,
would you still take advantage,
when you know you can't fulfill my needs...

years and years,
i've kept it behind,
being fucked around,
i continue to hide,
drowning,
inside my head,
taking in,
everything you said...

would you still abuse,
if you saw the scars,
that paint my body,
would you still ignore,
if you saw what it's doing to me,
would you still hate,
if you saw whats crawling,
beneath my porceline skin,
would you still laugh,
when you see me bleed...

im sorry,
im not what you want me to be,
i'd let you inside,
but i don't want you to see,
the disease that everyday,
eats away at me,
don't look at the light,
that will set me free,
cause there's nothing left to life,
but to bleed,

and i hate the blood,
hate the blood,
hate the blood...



by sean carver


Текст, аккорды и табулатура для песни "Sombre", исполняет "Rootlifter".
Используемые в песне аккорды можно найти в разделе Как брать аккорды. Аккорды для шестиструнной гитары. Другие песни можно найти на нашем сайте, воспользовавшись алфавитным указателем вверху страницы.


 
Ошибка в тексте? Выделите ошибку и нажмите Ctrl+Enter