artist: rootlifter
title: Remorhaz (fuck you)
album: not yet established
music and lyrics by: sean carver

tuning: dropped d

heavy distortion all thru, except on interlude #4...


INTRO/VERSE:
E:---------------------------------------------------------------------
B:---------------------------------------------------------------------
F:7-7-7-7-7-7-7-7-8-8-8-8-8-8-8-8---8-8-8-8---8-8-8-8---8-8-8-8-8-8-8-8
D:7-7-7-7-7-7-7-7-8-8-8-8-8-8-8-8-0-8-8-8-8-0-8-8-8-8-0-8-8-8-8-8-8-8-8
A:5-5-5-5-6-6-6-6-6-6-6-6-7-7-7-7-0-6-6-6-6-0-7-7-7-7-0-7-7-7-7-7-7-7-7
D:------------------------------------------------------7-7-7-7-7-7-7-7

BRIDGE:
E:-----------------------------
B:-----------------------------
F:10--10--9--9--10--10--14--14-
D:7---7---6--6--7---7---11--11-     each note strummed
A:X---X---X--X--X---X---X---X--           12x
D:8---8---7--7--8---8---12--12-

CHORUS:
E:------------------------------------------------
B:------------------------------------------------
F:0-2-2-0-2-2-0-2-0-3-1-0--0-2-2-0-2-2-0-2-0-8-7-5
D:0-2-2-0-2-2-0-2-0-3-1-0--0-2-2-0-2-2-0-2-0-8-7-5
A:0-2-2-0-2-2-0-2-0-3-1-0--0-2-2-0-2-2-0-2-0-8-7-5
D:0-2-2-0-2-2-0-2-0-3-1-0--0-2-2-0-2-2-0-2-0-8-7-5

INTERLUDE #1:
E:---------------------------------------------------------
B:---------------------------------------------------------
F:0-2-2-0-2-8*-0-2-2-0-2-10*-0-2-2-0-2-14*-0-2-2-0-2-12-11-     *=hold note
D:0-2-2-0-2-X*-0-2-2-0-2-X*--0-2-2-0-2-X*--0-2-2-0-2-X--X--
A:0-2-2-0-2-6*-0-2-2-0-2-8*--0-2-2-0-2-12*-0-2-2-0-2-10-9--
D:0-2-2-0-2----0-2-2-0-2-----0-2-2-0-2-----0-2-2-0-2-------

INTERLUDE #2:
E:----------------------         ---------------------------------------------
B:----------------------         ---------------------------------------------
F:8-8-10-10-14-14-12-11-         -14-14-13-13-16-16-17-17-19-19-19-19-19-19-19
D:X-X-X--X--X--X--X--X--         -x--x--x--x--x--x--x--x--x--x--x--x--x--x--x-
A:6-6-8--8--12-12-10-9-- X4 then -12-12-11-11-14-14-15-15-17-17-17-17-17-17-17
D:----------------------         ---------------------------------------------

INTERLUDE #3:
E:---------------------------------------------------------------------------
B:---------------------------------------------------------------------------
F:0-3-1-0-3-1-0-8-7-5-8-7-5-0-9-10-0-9-10-0-10-9-0-9-10--0-9-10-0-10-9-0-9-10
D:0-3-1-0-3-1-0-8-7-5-8-7-5-0-9-10-0-9-10-0-10-9-0-9-10--0-9-10-0-10-9-0-9-10
A:0-3-1-0-3-1-0-8-7-5-8-7-5-0-9-10-0-9-10-0-10-9-0-9-10--0-9-10-0-10-9-0-9-10
D:0-3-1-0-3-1-0-8-7-5-8-7-5-0-9-10-0-9-10-0-10-9-0-9-10--0-9-10-0-10-9-0-9-10

INTERLUDE #4: (with echo effect)
E:----------------------------------------------------
B:-------777---------777-----------111---------111----
F:----------888---------888-----------222---------222-
D:---888----------888-----------222---------222-------
A:666----------666-----------000---------000----------
D:----------------------------------------------------

INTERLUDE #5:
E:-----------------------------------
B:----11-7-----11-7------5-2-----5-2-
F:6-9-11-7-6-9-11-7--0-3-5-2-0-3-5-2-   each note strummed 3x
D:6-9-11-7-6-9-11-7--0-3-5-2-0-3-5-2-
A:6-9-9--5-6-9-9--5--0-3-3-0-0-3-3-0-
D:6-9------6-9-------0-3-----0-3-----



LYRICS:
you're immoral,
seductive leech,
chew your way thru,
i spit on you,

you're hollow,
cancerous parasite,
the scars on me,
gives you dignity...

you picked me up,
just to let me fall,
you sucked on me,
there was no ardour at all,
take the fingers out,
just enough to feel,
the wound on my back,
will never heal...

you're remorhaz,
treacherous beast,
your lustful moans,
shows i've cloned...

fuck your claws,
and all the skin,
you have drove them in,
fuck your mouth,
and the screams released,
to make us diseased,
and fuck your beauty,
and fuck your soul,
and fuck me,
for diving in your hole,
and fuck your gums,
and fuck your hands,
and fuck you,
you're not human!


by sean carver


Текст, аккорды и табулатура для песни "Remorhaz", исполняет "Rootlifter".
Используемые в песне аккорды можно найти в разделе Как брать аккорды. Аккорды для шестиструнной гитары. Другие песни можно найти на нашем сайте, воспользовавшись алфавитным указателем вверху страницы.


 
Ошибка в тексте? Выделите ошибку и нажмите Ctrl+Enter