artist: rootlifter
title: Rachael
album: not yet established
music and lyrics by: sean carver

INTRO & VERSE #1:

E:------------------------------------------------------
B:-------0--------3--------0--------3-------------------
D:-----2--------0--------2--------0----12-11-9---11-9-7-
G:---4--------0--------4--------0-----------------------
A:-4--------2--------4--------2-------------------------
E:------------------------------------------------------

CHORUS #1:

E:-------0------0--------------------------
B:-----5---5------5----------3---------3---
D:---2-------2------2------0---0-----0---0-
G:-4-----------4---------4---------4-------
A:---------------------2---------0---------
E:-----------------------------------------

VERSE #2:

E:-0-0-0-0--0-0-0-0--0-0-0-0--0-0-0-0--------------------
B:-0-0-0-0--3-3-3-3--0-0-0-0--3-3-3-3--------------------
D:-2-2-2-2--0-0-0-0--2-2-2-2--2-2-2-2--12-11-9---11-9-7--
G:-2-2-2-2--0-0-0-0--2-2-2-2--0-0-0-0---0--0-0----0-0-0--
A:-4-4-4-4--2-2-2-2--4-4-4-4--0-0-0-0--------------------
E:-------------------------------------------------------

CHORUS 2 & 3:

E:0-0-0-0-0-0-0-0--0-0-0-0--0-0-0-0--
B:5-5-5-5-5-5-5-5--3-3-3-3--3-3-3-3--
D:4-4-4-4-4-4-4-4--0-0-0-0--0-0-0-0--
G:2-2-2-2-2-2-2-2--4-4-4-4--4-4-4-4--
A:0-0-0-0-0-0-0-0--2-2-2-2--0-0-0-0--
E:-----------------------------------

INTERLUDE:

E:-0-0-0-3-3-3-0-------------------0-0-0-0-0-3-0-------------------
B:-0-0-0-3-3-3-0-------------------0-0-0-3-3-3-0-------------------  solo
D:-1-1-1-0-0-0-0-12-11-9---11-9-7--1-1-1-2-2-0-0-12-11-9---11-12-14 starts
G:-2-2-2-0-0-0----0--0-0----0-0-0--2-2-2-0-0-0----0--0-0----0--0--0  here
A:-2-2-2-2-2-2----0--0-0----0-0-0--2-2-2-----2----0--0-0----0--0--0
E:-0-0-0-3-3-3---------------------0-0-0-----3---------------------

SOLO:

E:---------------------------------------------------
B:---------------------------------------------------
D:-14-16-18-19-18-14-16-12*-14-16-18-19-18-16-18-19*-  then repeat with
G:---------------------------------------------------   a little distortion
A:---------------------------------------------------
E:---------------------------------------------------




LYRICS:

VERSE #1:
the good lord dropped an angel,
dropped an angel from above,
and no matter what she says,
i know i've fallen in love,
and i cherish every memory,
every single one we shaired,
even her scent of vanilla,
still lingers in the air,
she gave me words,
when i was shy,
she gave me her shoulder,
when i cried,
so all there is left to say is,
thank you and goodbye...

CHORUS:
your soft, soft hands,
push me away,
so now pathetically,
i walk through the days,
you took the better half of me,
but im glad its with you,
now im so empty,
i hope it rests with you...

VERSE #2:
your breathing is a poem to me,
that hides beneath the air,
the words are a beautiful song that you sing,
it shows you really cared,
i know i put you through hell,
but i put myself throught it too,
i danced in that motherfucker's flames,
but rachael, i would have died for you,
you gave me spirit,
when i was dry,
you gave me truth,
when i lied,
so all there is left to say is,
thank you and goodbye...

INTERLUDE:
you hurt me,
but you didn't kill me,
so i'll learn from these wounds,
hell, i've even got strength from you...

you're beautiful,
this is a beautiful goodbye,
thanks for the wings,
i'll meet you in the skies...



by sean carver


P.S- im missing you AND rajah!


Текст, аккорды и табулатура для песни "Rachael", исполняет "Rootlifter".
Используемые в песне аккорды можно найти в разделе Как брать аккорды. Аккорды для шестиструнной гитары. Другие песни можно найти на нашем сайте, воспользовавшись алфавитным указателем вверху страницы.


 
Ошибка в тексте? Выделите ошибку и нажмите Ctrl+Enter