Вступление:D C B C
D                        C          D C
От тебя идет свет, от меня идет свет 
Мы собрались сегодня, есть свободный момент 
Говорим о деревьях, ты зовешь меня в лес 
Вилл би форева ловен дас 
Регги ЗБС! 

Регги, регги, регги ЗБС 
Синие стрекозы над рябью воды 
Регги, регги, регги ЗБС 
Комаром под ноготь сочная осока 
Регги, регги, регги ЗБС 
Гул железной птицы глушит птицу в перьях 
Регги, регги, регги ЗБС 
Верь мне, верь мне 

Ветви цепляют за кожу твою 
Путает крепко твои ноги трава 
На ночь застелено, в зелено лечь 
Сны так прекрасны, что хочеться петь 
Сны так прекрасны возьми меня в лес 
Вилл би форева ловен дас 
Регги ЗБС! 

Регги, регги, регги ЗБС 
Синие стрекозы над рябью воды 
Регги, регги, регги ЗБС 
Комаром под ноготь сочная осока 
Регги, регги, регги ЗБС 
По болоту в Симу, позабыв про зиму 
Регги, регги, регги ЗБС 
В лето окунусь и к тебе вернусь 
Веришь мне, верь мне, верь мне, верь мне 

Ветви цепляют за куртку твою 
Путает крепко твои ноги трава 
На ночь застелено, в зелено лечь 
Сны так прекрасны, что хочеться петь 
Сны так прекрасны, что хочеться петь 
Петь о тебе, о цветах, об огне 
Хочется петь, ты возьми меня в лес 
Вилл би форева ловен Джа 
Регги ЗБС! 
Вилл би форева ловен дас 
Регги ЗБС! 

Регги, регги, регги ЗБС 
Регги, регги, регги ЗБС 
Веришь мне, верь мне, верь мне, верь мне

E||-------------------------|-----------------------|------------------------|
B||-------------------------|-----------------------|------------------------|
G||-------------------------|-----------------------|------------------------|
D||-------------------------|------------------0----|------------------------|
A||---0----x--3----2--0-----|-------------3---------|--0----x--3----2--0-----|
E||----------------------0--|--3----x--3------------|---------------------0--|


                                                                              
--------------------------||-------------------------|------------------------||
-------x--x--x--x--x--x---||---5---------------------|--3---------------------||
-------x--x--x--x--x--x---||*--6----x----------------|--4----------5----7----*||
-------x--x--x--x--x--x---||*--7----x----------------|--5----------5----7----*||
-------x-----x-----x------||---7----x----------------|--5----5--5--3----5-----||
--3-----------------------||---5----x--8----7--5--0--|--3----3--3-------------||




Текст, аккорды и табулатура для песни "Reggae ЗБС", исполняет "Рома ВПР".
Используемые в песне аккорды можно найти в разделе Как брать аккорды. Аккорды для шестиструнной гитары. Другие песни можно найти на нашем сайте, воспользовавшись алфавитным указателем вверху страницы.


 
Ошибка в тексте? Выделите ошибку и нажмите Ctrl+Enter