Artist: The Rolling Stones
Album: Sticky Fingers
Song: I Got The Blues

Intro to this fantastic tune...

cheers,
Jonny
[email protected]

This intro is actaully played by two guitars. I've included an interpretation (Part 1) that shows a mix of 
that sounds good played
alone. Also the two individual pieces (Part 2) are tabbed with timings from the CD.

Enjoy.


Standard Tuning

Symbols:

52 Slide from 5 to 2
2/5 Slide from 2 to 5
0h2 Hammer on from 0 to 2
2p0 Pull off from 2 to 0

Part 1

  G                 D                  Em/D                C
e----------------------------2h3p2--------------3----------0------------------------------------------|
B----------0--------------3---------3-----------3----------1------------------------------------------|
G-------0-----0--------2------------------------0--0-------0-------------4p2p0------0-----------------|
D----0-----------0--0------------------------2--------2----2----------5-----------0-------------------|
A-----------------------------------------2----------------3-----3s5-----------------------5--5h7--5--|
E-3------------------------------------0----------------------------------------3-----5s7-------------|


e----------------------------------------------------------|
B----------------------------------------------------------|
G------3--3--------3----3----3---------------4p2p0---------|
D-3s5--3--3h5p3----3h5--3h5--3------------5----------------|
A------------------------------------3s5-------------------|
E-------------------------------3-------------------3------|


*****************************************************************************************************************

Part 2

Guitar 1 and 2 are pretty much vertically aligned for timing. The * means notes are played at the same 
in 1 and 2.
You will almost definately have to listen to the cd to get it right...

Guitar 1

0.00				      0:07		 0:10				 0:15
  G                 D                 Em/D?               C
e----------------------------0------------------2---------0------------------------------------------------|
B----------0--------------3-----3---------------3--3------1------------------------------------------------|
G-------0-----0--------2-----------2------------2-----2---0----------------4p2p0---------------------------|
D----0-----------0--0------------------------2------------2-------------5----------------------------------|
A-----------------------------------------2---------------3--------3s5------------------------5--5h7--5----|
E-3------------------------------------0-----------------------------------------3--------5s7--------------|

Guitar 2
                    *                  *        *         *        *             *        *           *
e----------------------------2h3p2--------------7--------------------------------------------------------|
B-------------------------3---------------------10-----------------5h6p5------------------3s1------------|
G----------------------2---------------------9--9---9--------------5-------------------0--4s2------------|
D-------------------0---------------0-----9---------------------5-------------------0----------0h2p0--0--|
A--------------------------------------7---------------7-----7-------------------------------------------|
E---------------------------------------------------------8--------------------8s3-----------------------|

Guitar 1

 0:18	              0:21                    0:24
e---------------------------------------------------------------------|
B---------------------------------------------------------------------|
G------3--3-----------3----3----3----------------------4p2p0----------|
D-3s5--3--3h5p3-------3h5--3h5--3-------------------5-----------------|
A----------------------------------------------3s5--------------------|
E----------------------------------3--------------------------3-------|

Guitar 2

  *       *   *                    *           *       *      *
  D                   Dm
e-2h3p2---------------0-1-0----------------------------------------------------------|
B-3-------------------------3------------------0-------------------------------------|
G---------2---0---------------0------------0-------0---------------------------------|
D--------------------------------------0---------------0-----------------------------|
A------------------------------------------------------------------------------------|
E-----------------------------------3-------------------------3----------------------|


Текст, аккорды и табулатура для песни "I Got The Blues", исполняет "Rolling Stones".
Используемые в песне аккорды можно найти в разделе Как брать аккорды. Аккорды для шестиструнной гитары. Другие песни можно найти на нашем сайте, воспользовавшись алфавитным указателем вверху страницы.


 
Ошибка в тексте? Выделите ошибку и нажмите Ctrl+Enter