Rob Zombie - Never Gonna Stop (The Red, Red Kroovy)
Tabbed By: Myke
EMail: [email protected]

Drop D Tuning (Transposed To C)

Intro/Pre-Verse:

|-------------------------------------------------------------------|
|-------------------------------------------------------------------|
|------7-----9-----5-----5-----5-7-----7-----9-----5-----5-----5-4--|
|--0-0---0-0---0-0---0-0---0-0-----0-0---0-0---0-0---0-0---0-0------|
|-------------------------------------------------------------------|
|-------------------------------------------------------------------|

Chorus:

|------------------------------------------------------------------------|
|------------------------------------------------------------------------|
|-------------------------------12b--------------------------------------|
|--------------10----------------x-----------------10----------------10--|
|--5-7-7--5-7--10----5-7-7--5-7-10b----5-7-7--5-7--10----5-7-7--5-7--10--|
|--5-7-7--5-7--10----5-7-7--5-7--------5-7-7--5-7--10----5-7-7--5-7--10--|

Fill:

|--------------------------------------------------|
|--------------------------------------------------|
|--12-12--12h13-12----12-12h13-12------------------|
|----------------------------------------------10--|
|----------------------------------5-7-7--5-7--10--|
|----------------------------------5-7-7--5-7--10--|

|----------------------------------------------|
|----------------------------------------------|
|--12-12--12h13-12----12-12h13-12--------------|
|----------------------------------------------|
|----------------------------------5-7-7--5-7--|
|----------------------------------5-7-7--5-7--|

Verse 2 & 3:

|---------------------------------------------------|
|---------------------------------------------------|
|--7--7--10----7--7--10----7--7--10----/15--14--12--|
|---------------------------------------------------|
|---------------------------------------------------|
|---------------------------------------------------|
   ................................

[email protected]
2OO2

===========



#------------Created with Taborama Tab Creator-----------------#
#------------------------------------------------------------------------------#

Title: Never Gonna Stop
Artist: Rob Zombie
Album: The Sinister Urge

Instrument: Guitar

Tabbed by: matt hoy ([email protected])

Tuning: Dropped D (D A D G B E)

This is a good song, im not gonna be lame and say it's my first tab,
 cause it isn't. if it sucks blow me.

Intro : use my body to keep you alive....
E|-------------------------------------------------------------------||
B|-------------------------------------------------------------------||
G|-----5------7-------3------3------3h5------------------------------||
D|-------------------------------------------------------------------||
A|3-3----3-3-----3-3----3-3----3-3-----------------------------------||
D|-------------------------------------------------------------------|E-------------------------------------------------------------------||
B|-------------------------------------------------------------------||
G|-----5------7-------3-------3------3h5p3---------------------------||
D|-------------------------------------------------------------------||
A|3-3----3-3-----3-3----3-3-----3-3----------------------------------||
D|-------------------------------------------------------------------||Chorus: Never gonna stop me, never gonna stop
E|-------------------------------------------------------------------||
B|-------------------------------------------------------------------||
G|-------------------------------------------------------------------||
D|--------3-3-3-3-3-3----5----3-3-3-3-3------------------------------||
A|--------3-3-3-3-3-3----5----3-3-3-3-3------------------------------||
D|--------3-3-3-3-3-3----5----3-3-3-3-3------------------------------||


Bridge: SCREAM IF YOU WANT IT      CAUSE I WANT MORE
E|-------------------------------------------------------------------||
B|-------------------------------------------------------------------||
G|-------------------------------------------------------------------||
D|------55----55----55----55----55----55----55----55-----------------||
A|------55----55----55----55----55----55----55----55-----------------||
D|------55----55----55----55----55----55----55----55-----------------||


Текст, аккорды и табулатура для песни "Never Gonna Stop", исполняет "Rob Zombie".
Используемые в песне аккорды можно найти в разделе Как брать аккорды. Аккорды для шестиструнной гитары. Другие песни можно найти на нашем сайте, воспользовавшись алфавитным указателем вверху страницы.


Слушать онлайн Never Gonna Stop


Rob ZombieNever Gonna Stop на Яндекс.Музыке


 
Ошибка в тексте? Выделите ошибку и нажмите Ctrl+Enter