Rob Zombie - Living Dead Girl
Tabbed By: Myke
EMail: [email protected]

Drop D Tuning (Transposed To C)

Intro/Chorus:

|---------------------------------------------------|
|---------------------------------------------------|
|-----------------------------------------4----/16--|
|--6--6--5-4----6--6--5-4----6--6--5-4----x------x--|
|--6--6--5-4----6--6--5-4----6--6--5-4----2----/14--|
|--6--6--5-4----6--6--5-4----6--6--5-4--------------|

Pre-Verse:

|---------------------------------|
|---------------------------------|
|---------------------------------|
|--6-6----6-6----6-6---6-6-6-6-6--|
|---------------------------------|
|---------------------------------|
   .............................
Verse:

|-----|
|-----|
|-----|
|--6--|
|--6--|
|--6--|

[email protected]
2OO2

===========


          Band:Rob Zombie
          Song:Living Dead Girl
          By:Kenny Neumann
          
          This is the chorus riff which is also the main guitar part to this 
          song. 
          E-------------------------------------------------------------------------- 
          B-------------------------------------------------------------------------- 
          G------------------------------------------------2-2-2--14-14-14-14-------- 
          D--x--4---4--2-2-2--4---4--2-2-2--4---4--2-2-2--x-x-x---x--x--x--x-------- 
          A--x--4---4--2-2-2--4---4--2-2-2--4---4--2-2-2--0-0-0-/12-12-12-12-------- 
          E--x--2---2--0-0-0--2---2--0-0-0--2---2--0-0-0---------------------------- 
          
          E----------------------------------------------------------------------- 
          B----------------------------------------------------------------------- 
          G-------------------------------------------2-2-2--12-12-12-12---------- 
          D-4---4--2-2-2--4---4--2-2-2--4---4--2-2-2--x-x-x---x--x--x--x---------- 
          A-4---4--2-2-2--4---4--2-2-2--4---4--2-2-2--0-0-0-/10-10-10-10---------- 
          E-2---2--0-0-0--2---2--0-0-0--2---2--0-0-0------------------------------ 
          
          The guitar part for the verse is simply: 
          E---------------------------------------------- 
          B---------------------------------------------- 
          G---------------------------------------------- 
          D--4------------------------------------------- 
          A--4------------------------------------------- 
          E--2------------------------------------------- 
          
          There you go, it's very simple to learn. 
          


======

LIVING DEAD GIRL
by Rob Zombie

Tabbed by Devin Keyes ([email protected])
Revision by Mike Moore 
                      
 
 
     Intro/ Chorus                                              
E----------------------------------------------------------------------- 
B----------------------------------------------------------------------- 
G------------8--7--------------8--7--------------8--7------------------- 
D---4----9--8--7-----4----9--8--7-----4----9--8--7-----7--7-----7---- 
A---2----7--6--5-----2----7--6--5-----2----7--6--5------------------- 
E----------------------------------------------------------------------- 
                                                                         
                                              
                                                 Verse                            
E------||--------------------------7------------------------------------ 
B------||--------------------------6------------------------------------ 
G------||--------------------------7------------------------------------ 
D---8--||--------------------------7------------------------------------ 
A------||--------------------------5------------------------------------ 
E------||--------------------------------------------------------------- 
                                                                          
There ya' go... A very simple song, so it's basically: 
 
Intro 
Verse 
Chorus 
Verse 
Chorus 
Verse 
Chorus


Текст, аккорды и табулатура для песни "Living Dead Girl", исполняет "Rob Zombie".
Используемые в песне аккорды можно найти в разделе Как брать аккорды. Аккорды для шестиструнной гитары. Другие песни можно найти на нашем сайте, воспользовавшись алфавитным указателем вверху страницы.


Слушать онлайн Living Dead Girl


Rob ZombieLiving Dead Girl на Яндекс.Музыке


 
Ошибка в тексте? Выделите ошибку и нажмите Ctrl+Enter