Rob Zombie - House Of 1000 Corpses
Tabbed By: Myke
EMail: [email protected]

Standard Tuning

Intro/Verse:

|---------------|
|---------------|
|---------------|
|---------------|
|--2/7--0-------|
|------------2--|

Chorus:

|---------------------------------------------|
|---------------------------------------------|
|---------------------------------------------|
|--4--4----/7----7----7--6--7--6----7--7-6-7--|
|--4--4----/7----7----7--6--7--6----7--7-6-7--|
|--2--2----/5----5----5--4--5--4----5--5-4-5--|

[email protected]
2OO2


Текст, аккорды и табулатура для песни "House Of 1000 Corpses", исполняет "Rob Zombie".
Используемые в песне аккорды можно найти в разделе Как брать аккорды. Аккорды для шестиструнной гитары. Другие песни можно найти на нашем сайте, воспользовавшись алфавитным указателем вверху страницы.


Слушать онлайн House Of 1000 Corpses


Rob ZombieHouse Of 1000 Corpses на Яндекс.Музыке


 
Ошибка в тексте? Выделите ошибку и нажмите Ctrl+Enter