*********************************************************************************************
song: Kisapmata
Band: Rivermaya
Tabbed by: shortysphere
tuning (EADGBe)
*********************************************************************************************


Intro:

Guitar 1
e:-----5-------------|-----5---5-------|
B:---3-----3---3-----|---3-------3-----|
G:-2-----2---2---2-0-|-2-----2-----2-0-|
D:-------------------|-----------------|
A:-------------------|-----------------|
E:-------------------|-----------------|


Guitar 2 (not shown actual strumming pattern)
   D  Em A  G (2x)
e:-2--0--0--3---
B:-3--0--2--3---
G:-2--0--2--0---
D:-0--2--2--0---
A:-x--2--0--2---
E:-x--x--x--3---


Verse 1:

Guitar 1
e:-------------------------|	  |--------------------------|
B:-------------------------|	  |--------------------------|
G:-------------------------|	  |--------------------------|
D:-7-----9-----------------|repeat|-7-----9------------------|
A:-5(8x)-7(8x)-7-----5-----| (3x) |-5(8x)-7(8x)-7-----5------|
E:-x-----x-----5(8x)-3(8x)-|	  |-------------5(8x)-3(16x)-|


Guitar 2 (not shown actual strumming pattern)
   D  Em A  G (4x)
e:-2--0--0--3---
B:-3--0--2--3---
G:-2--0--2--0---
D:-0--2--2--0---
A:-x--2--0--2---
E:-x--x--x--3---



Chorus 1:


Guitar 1
   D		   Em		   A		   G
e:-------0---------------0---------------0---------------3---------|
B:-----3---3---3-------3---3---3-------3---3---3-------3---3---3---|
G:---2-------2-------0-------0-------2-------2-------0-------0-----|Repeat (4x)
D:-0---------------2---------------2---------------0---------------|
A:-----------------------------------------------------------------|
E:-----------------------------------------------------------------|


Guitar 2 (not shown actual strumming pattern)
   D  Em A  G (4x)
e:-2--0--0--3---
B:-3--0--2--3---
G:-2--0--2--0---
D:-0--2--2--0---
A:-x--2--0--2---
E:-x--x--x--3---



Pre-Verse 


Guitar 1
e:-----5----------|-----5--5--------|
B:---3-----3------|---3------3------|
G:-2-----2----2-0-|-2----------0----|
D:----------------|-----------------|
A:----------------|-----------------|
E:----------------|-----------------|


Guitar 2 (not shown actual strumming pattern)
   D  Em A  G (2x)
e:-2--0--0--3---
B:-3--0--2--3---
G:-2--0--2--0---
D:-0--2--2--0---
A:-x--2--0--2---
E:-x--x--x--3---




Verse 2:

Guitar 1
e:-------------------------|	  |--------------------------|
B:-------------------------|	  |--------------------------|
G:-------------------------|	  |--------------------------|
D:-7-----9-----------------|repeat|-7-----9------------------|
A:-5(8x)-7(8x)-7-----5-----| (3x) |-5(8x)-7(8x)-7-----5------|
E:-x-----x-----5(8x)-3(8x)-|	  |-------------5(8x)-3(16x)-|


Guitar 2 (not shown actual strumming pattern)
   D  Em A  G (4x)
e:-2--0--0--3---
B:-3--0--2--3---
G:-2--0--2--0---
D:-0--2--2--0---
A:-x--2--0--2---
E:-x--x--x--3---




Chorus 2:

Guitar 1
   D		   Em		   A		   G
e:-------0---------------0---------------0---------------3---------|
B:-----3---3---3-------3---3---3-------3---3---3-------3---3---3---|
G:---2-------2-------0-------0-------2-------2-------0-------0-----|Repeat (4x)
D:-0---------------2---------------2---------------0---------------|
A:-----------------------------------------------------------------|
E:-----------------------------------------------------------------|


Guitar 2 (not shown actual strumming pattern)
   D  Em A  G (4x)
e:-2--0--0--3---
B:-3--0--2--3---
G:-2--0--2--0---
D:-0--2--2--0---
A:-x--2--0--2---
E:-x--x--x--3---




Adlib:
(with Delay)

Guitar 1:

e:---------------------------------------------------------------------------------
B:-7---7---7b---7------------------------------------------------------------------
G:---7---7----7-----------4-2---2-2-2-2-2-0-0-0-0-0----------------------------7-7-
D:----------------7-5-4-5--------------------------4-4-4-4-4-2-2-2-2-2-0-0h2-5-----
A:------------------------------|------------------------------------|-------------
E:------------------------------**************************************-------------
				^(this part is very fast)^
e:------------------------------------------------------------------------------
B:-7---7---7b---7---------------------------------------------------------------
G:---7---7----7-----------4-2---2-2-2-2-2-0-0-0-0-0--------------------2-0h2----
D:----------------7-5-4-5--------------------------4-4-4-4-4-2-2-2-2-2-------5~-
A:------------------------------|------------------------------------|----------
E:------------------------------**************************************---------
				^(this part is very fast)^

e:-------------------------------------------------------------------------
B:-------------------------------------------------------------------------
G:-----7-7------9-9------11-11---11h12-11h12-11h12-11-9-7------7-7-----9-9-
D:-5/7------7-7------7-7-----------------------------------7-7-----7-7-----
A:-------------------------------|---------------|-------------------------
E:-------------------------------*****************-------------------------
				 ^(this part is very fast)
e:-------------------------------------------|
B:-14/15-1514-1412-1210-------------------|
G:-------------------------11-11/12-12~------|
D:-------------------------------------------|
A:-------------------------------------------|
E:-------------------------------------------|

		 
Guitar 2 (not shown actual strumming pattern)
   D  Em A  G (4x)
e:-2--0--0--3---
B:-3--0--2--3---
G:-2--0--2--0---
D:-0--2--2--0---
A:-x--2--0--2---
E:-x--x--x--3---





Verse 3:

Guitar 1:
      D    Em    A    G      D    Em     A     G     D	    Em    A      G      D     Em    A     G
e:----5----------------------5---------------------------------------------------------------------------|
B:--3----------------------3-----------------------------------------------------------------------------|
G:2----------------------2-------------------------------------------------------------------------------|
D:-------------------------------------------------------------------------------------------------------|
A:---------------------------------------------------5-----7-----12-----10-----5-----7-----12----10------|
E:---------------------------------------------------x(7x)-x(7x)-x-(7x)-x-(7x)-x(7x)-x(7x)-x-(7x)-x-(14x)|


Guitar 2 (not shown actual strumming pattern)
   D  Em A  G (4x)
e:-2--0--0--3---
B:-3--0--2--3---
G:-2--0--2--0---
D:-0--2--2--0---
A:-x--2--0--2---
E:-x--x--x--3---




Chorus 3:

Guitar 1
   D		   Em		   A		   G
e:-------0---------------0---------------0---------------3---------|
B:-----3---3---3-------3---3---3-------3---3---3-------3---3---3---|
G:---2-------2-------0-------0-------2-------2-------0-------0-----|Repeat (4x)
D:-0---------------2---------------2---------------0---------------|
A:-----------------------------------------------------------------|
E:-----------------------------------------------------------------|

e:---2-2-2-2-2-2-2----0-0-0-0-0-0-0----5-5-5-5-5-5-5---3-3-3-3-3-3-3--|
B:-3-3-3-3-3-3-3----3-3-3-3-3-3-3----3-3-3-3-3-3-3---3-3-3-3-3-3-3----|
G:--------------------------------------------------------------------|Repeat (4x)
D:--------------------------------------------------------------------|
A:--------------------------------------------------------------------|
E:--------------------------------------------------------------------|


Guitar 2 (not shown actual strumming pattern)
   D  Em A  G (8x)D
e:-2--0--0--3---
B:-3--0--2--3---
G:-2--0--2--0---
D:-0--2--2--0---
A:-x--2--0--2---
E:-x--x--x--3---


| h Hammer-on
| p Pull-off
| / slide up
|  slide down
| x dead string
| ~ Let ring
| b Bend

 [email protected]


Текст, аккорды и табулатура для песни "Kisapmata", исполняет "Rivermaya".
Используемые в песне аккорды можно найти в разделе Как брать аккорды. Аккорды для шестиструнной гитары. Другие песни можно найти на нашем сайте, воспользовавшись алфавитным указателем вверху страницы.


Слушать онлайн Kisapmata


RivermayaKisapmata на Яндекс.Музыке


 
Ошибка в тексте? Выделите ошибку и нажмите Ctrl+Enter