Artist: Rivermaya
Song Title: Kisapmata
tabbed by: Max13/Maverick
chords from: http://www.geocities.com/guitartabsite/


D: 000232
Em: 022000
A: 002220
G: 320033

--------5------------------------------5------------------------
-----3---------3-----3-------------3-----------3----------------
--2--------2------2-----2--0---2----------2---------2-----0-----
----------------------------------------------------------------
----------------------------------------------------------------
----------------------------------------------------------------

   D          Em      A              G
Nitong umaga lang, pagka lambing-lambing
          D           Em            A    G
Ng iyong mga matang hayup kung tumingin
        D        Em   A            G
Nitong umaga lang, pagka galing-galing
             D           Em        A  G
Ng iyong sumpang walang aawat sa atin.

Chorus:

         D            Em          A          G
O kay bilis namang maglaho ng pag-ibig mo sinta
  D              Em         A  G
Daig mo pa ang isang kisapmata
  D               Em            A             G
Kanina'y nariyan lang o ba't bigla namang nawala
  D              Em         A  G pause
Daig mo pa ang isang kisapmata.

--------5-----------------------------5---5---------------------
-----3---------3----------------3------------3------------------
--2--------2------2----0---2--------------------2-----0---------
----------------------------------------------------------------
----------------------------------------------------------------
----------------------------------------------------------------

  D          Em      A           G
Kani-kanina lang, pagka ganda-ganda
        D           Em            A  G
Ng pagkasabi mong sana'y tayo na nga
       D        Em   A         G
Kani-kanina lang, pagka saya-saya
          D            Em          A   G
Ng buhay kong bigla na lamang nag-iba.

Repeat Chorus except last word

          A      G   D  Em   A   G
...kisapmata ha haa, ha haa, ha haa

   D          Em      A              G
Nitong umaga lang, pagka lambing-lambing
   D          Em      A            G             D
Nitong umaga lang, pagka galing-galing galing-galing
  D          Em      A           G
Kani-kanina lang, pagka ganda-ganda
  D          Em      A         G
Kani-kanina lang, pagka saya-saya

Repeat Chorus

          A      G   D  Em   A   G
...kisapmata ha haa, ha haa, ha haa



[bkb]


Текст, аккорды и табулатура для песни "Kisapmata", исполняет "Rivermaya".
Используемые в песне аккорды можно найти в разделе Как брать аккорды. Аккорды для шестиструнной гитары. Другие песни можно найти на нашем сайте, воспользовавшись алфавитным указателем вверху страницы.


Слушать онлайн Kisapmata


RivermayaKisapmata на Яндекс.Музыке


 
Ошибка в тексте? Выделите ошибку и нажмите Ctrl+Enter