song:evil clown
artist:slapshit
remixed by:rivermaya
tabbed by:Kc

intro/stanza:(guitar I only on stanza) 
        1st part            2nd part        3rd part
E|-----------------     ------------------|-----------------------|
B|----3---3--------     --3---3h4-4-3-----|--2h3p2-2h3h4-4-3------|
G|--2-2-2-2-2-3-2--strum----2---------3-2-|------------------3-2--|
D|----------------- (4x)------------------|-----------------------|
A|-----------------     ------------------|-----------------------|
E|-----------------     ------------------|-----------------------|

E|-----------------------|
B|--2h3p2-0h2h3p2-3-2----|
G|-----------------------|
D|-----------------------|
A|-----------------------|
E|-----------------------|

stanza chord(guitar II) is(D-Eb)strumming until(when you smile, and ehre I cry)
E|-------|
B|--3-4--|
G|--2-3--|
D|-------|
A|-------|
E|-------|

chorus:D5-G5(strumming)
D5         D5 G5
cut me out(2x)
D5             D5 G5
cut, cut me out(2x)
interlude:
E|-----------------------------|-------------------------|
B|--3---3---3---3-4-4h6-4-3-3--|----3---3---3------------|
G|----2---2---2----------------|--2---2---2---3-3h5-3-2--|
D|-----------------------------|-------------------------|
A|-----------------------------|-------------------------|
E|-----------------------------|-------------------------|
                            |strum|
E|-----------------------------------|
B|--------------------------3-3-3-3--|
G|--2-2-2-2h3---2-3-3h5-3-2-2-2-2-2--|
D|------------5----------------------|
A|-----------------------------------|
E|-----------------------------------|

interlude II:D5-G5
bridge:Dm-G
(shouting evil clown)Dm-G(strumming)---| 
E|----1--3----|                   


Текст, аккорды и табулатура для песни "Evil Clown Acoustic", исполняет "Rivermaya".
Используемые в песне аккорды можно найти в разделе Как брать аккорды. Аккорды для шестиструнной гитары. Другие песни можно найти на нашем сайте, воспользовавшись алфавитным указателем вверху страницы.


 
Ошибка в тексте? Выделите ошибку и нажмите Ctrl+Enter