Играется с каподастром на 3 ладу
(соответственно все аккорды и табы указаны относительно каподастра)

Intro:

e--------------------------------------0h1p0------------------
h0h1p0-------------3-1h3p1p0---------1-------3-1h3p1p0--------
g|---------2-------2-------2-------------0-----2-------------------2-0-2--
d|-------2-----------2---2---2---------------2----------------------------
a|-----0---------------0-------------------0---------------------------0--
E|-0h3--------------------------------------------------------------------

e------------------0h1p0---------5-7h8p7-5------------
h0h1p0-----------1-------3-----5-----------5----------
g|---------2-------2-------2-------------5---------------5-4h5-2--
d|-------2-----------2---2----------------------------------------
a|-----0---------------0---------------0-----------------------0--
E|-0h3------------------------------------------------------------

 Am             G
Dancing to the feel of the drum
 Am                 G
Leave this world behind
 Am                     G
We´ll have a drink and toast to ourselves
F        Em      Am
Under a Violet Moon
 Am                  G
Tudor Rose with her hair in curls
      Am                 G
Will make you turn and stare
  Am            G
Try to steal a kiss at the bridge
F        Em     Am
Under a Violet Moon

Припев:
 Am                        Dm      G 
Raise your hats and your glasses too
 G                  C  
We will dance the whole night through
 C           G/H       F        Am
We´re going back to a time we knew
F        Em     Am
Under a Violet Moon


Cheers to the Knights and days of old
the beggars and the thieves
living in an enchanted wood
Under a Violet Moon

Fortuneteller what do you see
Future in a card
Share your secrets, tell them to me
Under a Violet Moon

Close your eyes and lose yourself
In a medieval mood
Taste the treasures and sing the tunes
Under a Violet Moon

Tis my delight on a shiny night
The seasons of a year
To keep the lanterns burning bright
Under a Violet Moon

Вариант для второй гитары:
Куплет:
   Am        G         Am      G
e----------------------------
h|-------0-1-3-0-----------0-1-0---------
g|-2-2-2---------2-0---0-0-------2-0-----
d----------------------------
a|-0-------------------2-----------------
E------------------3---------

   Am        G         F     Em  Am
e----------------------------
h|-------0-1-3-0-------1-0---------------
g|-2-2-2---------2-0-------2-0-0-2-------
d----------------------------
a|-0-----------------------------0-------
E----------1-----0-----------

Припев:
   
   Am        Dm      G         C
e|-0-0-0---0-1-0---------------0---------
h|-------3-------3---3-3-3-1-3---3-1-----
g----------------------------
d0---------------------------
a|-0---------------------------3---------
E--------3-------------------
   
   C     G     F   Am F     Em  Am    
e--------0-------------------
h|---0-1---0-1---3-1---3-1-0-1-----------
g|-2-----0---------------------2---------
d--3-------------------------
a------------------0---------
E----------------------------

Любые конструктивные дополнения и исправления приветствуются.


Текст, аккорды и табулатура для песни "Under A Violet Moon", исполняет "Ritchie Blackmore".
Используемые в песне аккорды можно найти в разделе Как брать аккорды. Аккорды для шестиструнной гитары. Другие песни можно найти на нашем сайте, воспользовавшись алфавитным указателем вверху страницы.


 
Ошибка в тексте? Выделите ошибку и нажмите Ctrl+Enter