Instrumental:

Guitar1:  e-------------------------|
          H-5-------3p5--3----------|
          G-------------5-4-5|-2----------------|
          D-------------------------|
          A-------------------------|
          E-------------------------|

Guitar2:  e-0--------0-------|---------1--------|
          H-1----1-----1---1-|-----1-----1---1--|
          G-2--2---2-----2---|---2---2-----2----|
          D-2-----------------------|
          A-0----------------|-3----------------|
          E-------------------------|                         
_________________________________________________
Guitar1:  e-------------------------|
          H-3-------1p3--1----------|
          G-------------4-2-4|-2----------------|
          D-------------------------|
          A-------------------------|
          E-------------------------|

Guitar2:  e---------3--------|---------0--------|
          H-----0-----0---0--|-----1-----1---1--|
          G---0---0-----0----|---2---2-----2----|
          D-------------------------|
          A------------------|-0----------------|
          E-3-----------------------|                      
_________________________________________________
Guitar1:  e-------------------------|
          H-5-------3p5--3----------|
          G-------------5-4-5|-4----------------|
          D-------------------------|
          A-------------------------|
          E-------------------------|

Guitar2:  e-0--------0-------|---------3--------|
          H-1----1-----1---1-|-----0-----0---0--|
          G-2--2---2-----2---|---0---0-----0----|
          D-2-----------------------|
          A-0-----------------------|
          E------------------|-3----------------| 
_________________________________________________
Guitar1:  e-------------------------|
          H-3-------1p3--1----------|
          G-------------4-2-4|-2----------------|
          D-------------------------|
          A-------------------------|
          E-------------------------|

Guitar2:  e---------3--------|---------1--------|
          H-----0-----0---0--|-----3-----1---1--|
          G---0---0-----0----|---2---2-----2----|
          D------------------|-0----------------|
          A-------------------------|
          E-3-----------------------| 
_________________________________________________
riff:     e------------------|     
          H------------------|
          G------------------|
          D-----2-3-2--------|
          A-3-5-------5-3----|
          E------------------|
_________________________________________________

C		 G  
  One day in the year of the fox
	Dm		Am
Came a time remembered well
	 F
When the strong young man
	G
Of the rising sun heard the
Am
Tolling of the great black bell

(riff)
C		 G
  One day in the year of the fox when the
E	      Am	
Bell began to ring, it meant the
F		      G	
Time had come for the one to go to the
Am
Temple of the King


Dm
There in the middle of the circle, he stands
Am
Searching, Seeking,
      G		
With just one touch of his trembling hand
     Am	
The answer will be found


Dm
Daylight waits for the oldman´s scream
Am	
Heaven, help me,
G	            Dm
Just like a rush of thousand wings 
    E
It shines upon the world
	F	G   	Am     
And the day has just begun

(Instrumental)	
(riff)
C		  G
  One day in the year of the fox
	Dm		Am
Came a time remembered well
	  F	
When the strong young man
	G
Of the rising sun heard the
Am
Tolling of the great black bell

(riff)
C		 G
  One day in the year of the fox when the
E	      Am	
Bell began to ring, it meant the
F		      G	
Time had come for the one to go to the
Am
Temple of the King

Dm
There in the middle of people he stands
Am
Seeking, feeling
	  G
Just one touch of the strong right hand
      E
He´s gone, to the 
F      G      Am
Temple of the King

(Instrumental, p.s. последняя нота в 
Guitar1 не G--2--, а H--5--)
        

solo:   Am / F / Am / F / Am
	G / Dm / E / Am / F / Am / F
	Am / G / Dm / E
Dm	
Far from the circle of the edge of the world
      Am	
He´s smoking, wandering
G			
Thinking back of the stories he´s told
       Am
Before he´s gonna see
Dm
There in the middle of the circle he lies
Am
Heaven, help me
G		     Dm
All could see by the shine in his eyes
     E	
The answer has been found

Dm
Back with the people in the circle he stands
Am
Seeing, feeling
     G			    Dm			   E	
With just one touch of the strong right hand they know
	F      G      Am			
Of the Temple and the King 

(instrumental)	

арпеджио: F - E - Am 

Осталось немного подкорректировать соло(пришлю попозже).


Текст, аккорды и табулатура для песни "The Temple Of The King", исполняет "Ritchie Blackmore".
Используемые в песне аккорды можно найти в разделе Как брать аккорды. Аккорды для шестиструнной гитары. Другие песни можно найти на нашем сайте, воспользовавшись алфавитным указателем вверху страницы.


 
Ошибка в тексте? Выделите ошибку и нажмите Ctrl+Enter