Q=190
 4/4
  
|---------0h7p0-------0-----------|---------0--------|
|-------0-------10-|-8h10p8p7---8---0---------|---0---0---0------|
|-----9------------|----------9-------0-4h5p4-|-----4-------4----|
|---9-----------------------------|-7-------------7--|
|-7--------------------------------------|
-----------------------------|


-------|---------0h7p0-------0-----------|
-------|-------0-------10-|-8h10p8p7---8---0---------|
-------|-----9------------|----------9-------0-4h5p4-|
|-5h7p5p4---4------|---9-----------------------------|
|---------6---7----|-7-------------------------------|
-----------------------------|


|---------0--------------|
|---0---0---0------------|
|-----4-------4----------|
|-7-------------7-|-5h7p5p4---4------|
------|---------6---7----|
-------------|


--12-15-14-12-|-11h14p11----------------|
|----------13-------------|----------12-------------|
|-------12------------------11----------|
|----14------------------------13-------|
|-15------------------------------14----|
-------------------------11-|


---------------|
---------------|
----2-|---5-4h5p4h5p4------|
|---------2-4-5-------7----|
|-------2---------|-0------------------|
|-0-2-3--------------------|


----5-|-3h5p3p0-------0------|
|-----4-------0---|---------5-0-3---5----|
|---4---4---5-------------7--|
|---------4------------------|
|-2--------------------------|
-----------------|


---------------------------0-|
--0--------------|-------0-------0-0-----|
|-5-4h5p4---4---4------------|-----0-------5---|---0---0-----0---|
|---------7-------7-5h7p5-|-4---4--------|---4-------4-----|-----4---5-------|
--------------|---7---6-7----|-6-------6-------|-7---------------|
-----------------------------|


------|---------2-3-2h3p2h0--------------|
|---5-------------|-------3-------------|-------0-------0--------|
|-------7---5---4-----------|-----0-------5-----0-2p=|
------|---0-----------------|---4-------4-----|---------2-4------|
|-0---0---0---0-------------|-6-------6-------|-------2----------|
------|-2-------------------------|-0-2-3------------|


----------|---------3-2h3p2p0---|---------0-------|------|
0---------|-----3-------------0-|-------7---7-----|------|
|-0-------0---2h4p2p0-|---2---2-------------|-----8-------8---|------|
|---2---2-------------|-0-------------------|---9-----------9-|------|
|-----3-------------------------------|------|
--------------------|-7---------------|-7----|


|---------0h7p0-------0-----------|---------0-------|
|-------0-------10-|-8h10p8p7---8---0---------|---0---0---0-----|
|-----9------------|----------9-------0-4h5p4-|-----4-------4---|
|---9-----------------------------|-7-------------7-|
|-7-------------------------------------|
----------------------------|


-------|---------0h7p0-------0-----------|
-------|-------0-------10-|-8h10p8p7---8---0---------|
-------|-----9------------|----------9-------0-4h5p4-|
|-5h7p5p4---4------|---9-----------------------------|
|---------6---7----|-7-------------------------------|
-----------------------------|


|---------0--------------|
|---0---0---0------------|
|-----4-------4----------|
|-7-------------7-|-5h7p5p4---4------|
------|---------6---7----|
-------------|


--12-15-14-12-|-11h14p11----------------|
|----------13-------------|----------12-------------|
|-------12------------------11----------|
|----14------------------------13-------|
|-15------------------------------14----|
-------------------------11-|


---------------|
---------------|
----2-|---5-4h5p4h5p4------|
|---------2-4-5-------7----|
|-------2---------|-0------------------|
|-0-2-3--------------------|


----5-|-3h5p3p0-------0------|
|-----4-------0---|---------5-0-3---5----|
|---4---4---5-------------7--|
|---------4------------------|
|-2--------------------------|
-----------------|


-----------------------|--------0-8-7p0-|
--0--------------1p0---|------7---------|
|-5-4h5p4---4---4------------|---------2-----2-|----8-----------|
|---------7-------7-5h7p5-|-4---4--------|---1-2-4---------|--9-------------|
--------------|---7---6-7----|-2--------------------|
----------------------------|


            Q=80
0-11-12-14-|
|--------13------------|
|-----11---------------|
|--13------------------|
-----------|
-----------|


|-15-14h15p14-12----------------------|----------------*|
-----15-13-12h13p12----12-|------12-10----9----*|
--------------------14-----11------*|
-----------------------------------*|
-----------------------------------*|
|--0--------------------------------------0----*|


Текст, аккорды и табулатура для песни "Possum Goes To Prague", исполняет "Ritchie Blackmore".
Используемые в песне аккорды можно найти в разделе Как брать аккорды. Аккорды для шестиструнной гитары. Другие песни можно найти на нашем сайте, воспользовавшись алфавитным указателем вверху страницы.


 
Ошибка в тексте? Выделите ошибку и нажмите Ctrl+Enter