Песня играется в Cm посему ставим каподастр на 3 лад

вступление (2 раза):

e|------0-5-7-8-7-5-0----1-3-5-0------1-0-----------0-----------
h-----------3------------3----3-1-0-1-3---3-1-0-----
g|---2-----------------2------------2-----------------------2---
d|--2-----------------0------------0----------------------------
a|-0---------------------------0----------------------------0---
E---------------------------------0-----0-----------

куплет:

e------------0------------------------------------
h|---0-1-3-1-0-----0-1-3---3-0-1-0------0-1-0---1-0-----------
g|-2-----------2-2-----------------2--2-------2-----2-2-0-0---
d---------------------------------------2-2-0-0---
a|-0-----------0---------------0------0-------0-----0-----2---
E-------------------------------------------------

e------------0------------------------------------
h|---0-1-3-1-0-----0-1-3---3-0-1-0------0-1-0---1-0-----------
g|-2-----------2-2-----------------2--2-------2-----2-2-0-0---
d---------------------------------------2-2-0-0---
a|-0-----------0---------------0------0-------0-----0-----2---
E-------------------------------------------------


припев:

e|-----0-0---0-1-0---0------3-1-0------------------0-0---0-1-0------------------
h|----1----3---------------0------3----1-0--------1----3-------3-1----0-1-0-----
g|---0--------------------0-----------2----2-----0-------------------0------2---
d|--2--------------------0-----------2----------2-------------------0-------2---
a|-3--------------------2-----------0----------3----------------------------0---
E----------3--------------------------------------------------------

e|-----0-0---0-1-0---0------3-1-0--------------0-------0-0---0-1-0-------------------
h|----1----3---------------0------3-1-0----1-3--------1----3-------3-1-----0-1-0-----
g|---0--------------------0---------------2----------0--------------------0------2---
d|--2--------------------0---------------2----------2--------------------0-------2---
a|-3--------------------2---------------0----------3--------------------2--------0---
E----------3-----------------------------------------------3-------------


текст:

Am                      
Underneath the harvest moon
Where the ancient shadows will play and hide...
With a ghostly tune and the devil´s pride...
"Stranger" whispered all the town
Has he come to save us from Satan´s hand?
Leading them away to a foreign land...

  C                           
Play for me, minstrel, play
     G             Am
And take away our sorrows...
  C                  
Play for me, minstrel, play
           G  Am
And we´ll follow...
 C                     
Hear, listen, can you hear,
     G                  Am
The haunting melody surrounding you,
 C                G                Am
Weaving a magic spell all around you...


Danger hidden in his eyes,
We should have seen it from far away,
Wearing such a thin disguise in the light of day...
He held the answer to our prayers,
Yet it was too good to be...
Proof before our eyes, yet we could not see... 

о неточностях и возможных дополнениях сообщайте пожалуйста на e-mail


Текст, аккорды и табулатура для песни "Play Minstrel Play", исполняет "Ritchie Blackmore".
Используемые в песне аккорды можно найти в разделе Как брать аккорды. Аккорды для шестиструнной гитары. Другие песни можно найти на нашем сайте, воспользовавшись алфавитным указателем вверху страницы.


 
Ошибка в тексте? Выделите ошибку и нажмите Ctrl+Enter