1)

1||-5-4h5p4p2---2-------------2-4-5-4h5p4p2---2/5-----------
2||---2------5---3-3p2----2-0-------2------5-----33p2-------
3||--2--------7-0-----4-2---1------2-----------------42-1-3-
4||-4-----------------------------4---------7-0-------------
5||----------4---2------2---0--------------4-----2----4-----
6-------------------------------0-2-

2)

1---0-2-3-2-0----2------------------
2||-3---5-3-2--3-20-0-2---3----------32---2-3-2p0-0-2h32---0
3||-4--4----2-2-----------4----------------------2------4p3-
4|----------4-----0-2--------4------------------
5||-2-0-----0-------------2-4---------0-----2--------------2
6||----4-----32---4-2-0----------------3----------3----2----

3) ПОВТОР 1)


Текст, аккорды и табулатура для песни "MeMINGEN", исполняет "Ritchie Blackmore".
Используемые в песне аккорды можно найти в разделе Как брать аккорды. Аккорды для шестиструнной гитары. Другие песни можно найти на нашем сайте, воспользовавшись алфавитным указателем вверху страницы.


 
Ошибка в тексте? Выделите ошибку и нажмите Ctrl+Enter