|-0-2-3-2-0---------------|----|Дальше играется      
|-----0-----3---1--1-0----|0---|тоже самое тоько     
2-0-0--2--2-0-|--2-|в конце вместо той     
0-------------|--0-|хрени которая отделена палками  
----3--0------|----|проводишь пальцем     
|-----0-----------------3-|----|сначала F потом Е    


------------------0|
|-1---3-1-0---1-0-------0-1-3-1|
|-2---2---0---0---2-0-2---0----|
|-----0-----------2---2--------|
|-0-------2---3---0---0---3---3|
|---3-------3---------------3--|  


|-1-0------0-------- Дальше зажимаешь F -----------| 01 -короткий форшлаг значит дергаешь 
|-3--3-1-0-0-0-1-01  и дергаешь 3 4 6   --0-1------| 2 струну открутую потом резко ставишь палец 
---2-----струны вместе один ------1-1-2| (левой ноги) на 1 лад и также резко убираешь 
|-0------------------раз---------------------------|  его
---0----------------------------------0|
|--------3-0----------------------------------0----                                                     
                                                     


|-0-2-3-2-0-------------------|
|-----0-----3---1--1-0----0-3-|
2-0-0--2--2-0-----|
0---------------0-| 
----3--0----------|
|-----0-----------------3-----|


|-0-2-3-2-0--------3-2-0-Дальше зажимаешь H -3-0|
|-----0-----3---1--------и дергаешь 2 3 5   ----|
2-0-0--------струны вместе один ----|
0------------раз--------------------|
----3-------------------------------|
|-----0------------0---------------------------0|


Текст, аккорды и табулатура для песни "MeMINGEN", исполняет "Ritchie Blackmore".
Используемые в песне аккорды можно найти в разделе Как брать аккорды. Аккорды для шестиструнной гитары. Другие песни можно найти на нашем сайте, воспользовавшись алфавитным указателем вверху страницы.


 
Ошибка в тексте? Выделите ошибку и нажмите Ctrl+Enter