Замечание:
Символ "!" означает, что ноты под ним должны быть взяты не все сразу, а быстро
одна за другой, с нижней к верхней, как бы ударом по струнам. 


Part1
                   !        !   !
E-5-7-8/9/8-7-3--0-1----1-0---0-0----
B------------------3----3---1---0----
G------------------2----2---2---1----
D------------------0----0---2---2----
A---------------------------0---2----
E-------------------------------0----

                   !        ! ! !
E-5-7-8/9/8-7-3--0-1----1-0----------
B------------------3----3---1-1------
G------------------2----2---2---1----
D------------------0----0---2-2-2----
A---------------------------0-3-2----
E------------------------------------

Part2

                             ! ! !
E--3--0-1-5-3-0-1-5-3-0-1----0-0-3---
B-------------------------3--1-1-0---
G----------------------------2-0-0---
D-----0-0-----0-0-----0-1----2-2-0---
A--2-------------------------0-3-2---
E--3-------------------------0-0-3---


E-6-5-3-2-1---5-0-1---------3-1-0-----------
B-----------------3---1h2p3-----------------
G-0---------------2---------------3h2p4-----
D---------0-------0-------------------------
A-------------4-----------------------------
E-------------------------------------------


Part3

                   !        !   !
E-5-7-8/9/8-7-3--0-1----1-0---0-0----
B------------------3----3---1---0----
G------------------2----2---2---1----
D------------------0----0---2---2----
A---------------------------0---2----
E-------------------------------0----




                   !        
E-5-7-8/9/8-7-3--0-1/9----
B------------------3/11---
G------------------2/10---
D------------------0------
A-----------------------
E-----------------------

  !
E-1--7-5-3-1-0-----0---
B-3---------------1----
G-2--------------2-----
D---------------2------
A--------------0-------
E----------------------


Замечание:
Символ "!" означает, что ноты под ним должны быть взяты не все сразу, а быстро
одна за другой, с нижней к верхней, как бы ударом по струнам. 


Текст, аккорды и табулатура для песни "MeMINGEN", исполняет "Ritchie Blackmore".
Используемые в песне аккорды можно найти в разделе Как брать аккорды. Аккорды для шестиструнной гитары. Другие песни можно найти на нашем сайте, воспользовавшись алфавитным указателем вверху страницы.


 
Ошибка в тексте? Выделите ошибку и нажмите Ctrl+Enter