E:-0-2-3---2h3p2-0-----0-------------------------
H:-------0---------3---1-1-1-p0-----0------------
G:-------------------0-0-2------2-0---2-p0-2-----
R:---------------------2-2-----------------------
A:-----------------2---3-0-----------------------
E:--------------------------------0--------2-----

E:-0-2-3---2h3p2-0-----0-------------------------
H:-------0---------3---1-1-1-p0------------------
G:-------------------0-0-2------2-0-2-1----------
R:---------------------2----------------2--------
A:-----------------2---3-0-----------------------
E:--------------------------------0-2------------

E:-----------------------------------0--1-p0---------0-------------------------------
H:-1---3-1-0---1-0---------0-h1-p0-3-1-------3-1-0-------1-----------0-h1-0----------
G:-2---------------2-2-0-------------0-----------------4-2-4-p2-p0-2--------2-p1-2---
R:-----------------------2-----------2--0----------------------------------------2---
A:-0-----------------------0-------2-3-------------------0-----------------------0---
E:---3-2---3-1-0---1-0-0-------------------------3-1-4-------------1------0----------

E:-0-2-3---2h3p2-0-----0--------------------------
H:-------0---------3---1-1-1-p0-----0-------------
G:-------------------0-0-2------2-0---2-p0-2------
R:---------------------2-2------------------------
A:-----------------2---3-0------------------------
E:--------------------------------0--------2------

E:-0-2-3---2h3p2-0-----0---3-2h3p2-0------0-------
H:-------0---------3---1s8-----------4-s7-0-------
G:-------------------0-0------------------1-------
R:---------------------2---2--------------2-------
A:-----------------2---3-------------2----2-------
E:----------------------------------------0-------


Текст, аккорды и табулатура для песни "MeMINGEN", исполняет "Ritchie Blackmore".
Используемые в песне аккорды можно найти в разделе Как брать аккорды. Аккорды для шестиструнной гитары. Другие песни можно найти на нашем сайте, воспользовавшись алфавитным указателем вверху страницы.


 
Ошибка в тексте? Выделите ошибку и нажмите Ctrl+Enter