Artist: Rise Against
Song Name: Dead Ringer
Album: Revolutions Per Minute

#=X3 
*=X6 
o=X8 
/=slide 

intro 
------------------------------------------------- 
------------------------------------------------- 
------------------------------------------------- 
-4-x-x-x-x-x-x-4-x-x-x-x-x-x-4-x-x-x-x-x-x-4-x-x- 
-4-x-x-x-x-x-x-4-x-x-x-x-x-x-4-x-x-x-x-x-x-4-x-x- 
-2-x-x-x-x-x-x-2-x-x-x-x-x-x-2-x-x-x-x-x-x-2-x-x- 

verse 
--------------------------------------------- ---- 
--------------------------------------------- ---- 
-----5-6---------5-6-7-7-----5-6-----9-9-6-6- X2 --*- 
-4-4-5-6-5-5-4-4-5-6-7-7-4-4-5-6-5-5-x-x-x-x- -4-- 
-4-4-3-4-5-5-4-4-3-4-5-5-4-4-3-4-5-5-7-7-4-4- -4-- 
-2-2-----3-3-2-2---------2-2-----3-3--------- -2-- 

chorus 
--------------------------- 
--#-------#------#-------*- 
-9----#-11----#-9----#-11-- X2 
-9--11--11--12--9--11--11-- 
-7--11---9--12--7--11---9-- 
-----9------10------9------ 

verse 

chorus 

bridge 
------------------------- 
------------------------- 
--^--^--^--^--^--^--^--^- 
-4--5--6--5--4--5--6--5-- 
-x--x--x--x--x--x--x--x-- 
-2--3--4--3--2--3--4--3-- 

------------------------------------- 
---o---o---o---o---o---o---o---o---^- 
-11--12--13--12--11--12--13--12--11-- 
--x---x---x---x---x---x---x---x---x-- 
--9--10--11--10---9--10--11--10---9-- 
------------------------------------- 

verse 

end 
---- 
---- 
---- 
-4/- 
-4/- 
-2/-


Текст, аккорды и табулатура для песни "Dead Ringer", исполняет "Rise Against".
Используемые в песне аккорды можно найти в разделе Как брать аккорды. Аккорды для шестиструнной гитары. Другие песни можно найти на нашем сайте, воспользовавшись алфавитным указателем вверху страницы.


 
Ошибка в тексте? Выделите ошибку и нажмите Ctrl+Enter