leann rimes, how do i live.
Tabbed by snowy, [email protected]
  
Artist: Leann Rimes
Song: How Do I Live? (intro and solo)

(Yes, you finally get to learn that pretty lil' classical riff in the beginning!) I know I cant find this anywhere on the net, so I figured it out and felt like saving people a lot of time and yes, even work. Comments - [email protected] - Snowy


Intro Riff: 

|----------------------------------10-9-7-7^9--------
|-------------------10/1210------------------10-----
|-----------7---7---9-/119-------------------------- Repeat Once
|-------7-9---9--------------------------------------
|----------------------------------------------------
|----------------------------------------------------


Midway Solo:

|-------------------------------------14-14-14------
|---10br----11b-11b-11b-11b-------------------------
|------------11b-11b-11b-11b-9-----------------------
|------------------------------(11)------------------
|----------------------------------------------------
|----------------------------------------------------

                            Big Finish!

|---1214-14-14-14-14----/14-16^17/19-19b-19b------
|----------------------------------------------------
|----------------------------------------------------
|----------------------------------------------------
|----------------------------------------------------
|---------------------------------------------------- 
:: Ultimate Guitar Archive :: 
http://www.ultimate-guitar.com 

 


Текст, аккорды и табулатура для песни "How Do I Live", исполняет "Rimes Leann".
Используемые в песне аккорды можно найти в разделе Как брать аккорды. Аккорды для шестиструнной гитары. Другие песни можно найти на нашем сайте, воспользовавшись алфавитным указателем вверху страницы.


 
Ошибка в тексте? Выделите ошибку и нажмите Ctrl+Enter