-------------------------------------------------------------------------------
			     Unchained Melody - The righteous brothers 
-------------------------------------------------------------------------------
Tabbed by: Andrew Ng 
Email: [email protected] 

Tuning: Standard 

Keep a even beat and try to let the B string ring. And sing! 
Verses
e|---------------------------------------------------------------------------|
B|-------1-----------1-----------1-----------1-----------1-----------1-------|
G|-----0---0-------0---0-------2---2-------2---2-------2---2-------2---2-----|
D|---2-------2---2-------2---2-------2---2-------2---3-------3---3-------3---|
A|-3-----------3-----------0-----------0-----------3-----------3-------------|
E|---------------------------------------------------------------------------|

   Ohhh ..                   My Love...          My Darling.. 
e|---------------------------------------------------------------------------|
B|--------3------------3-------------1-----------1-----------1-----------1---|
G|------0---0--------0---0---------0---0-------0---0-------2---2-------2-----|
D|----0-------0----0-------0-----2-------2---2-------2---2-------2---2-------|
A|----------------------------3------------3----------0------------0---------|
E|-3-------------3-----------------------------------------------------------|
  I've hungered      for           your touch...             A long..

e|-------3----------3--------------------------------------------------------|
B|-----3---3------3---3------------------------------------------------------|
G|---0----------0-------0----------------------------------------------------|
D|---------------------------------------------------------------------------|
A|---------------------------------------------------------------------------|
E|-3---------3---------------------------------------------------------------|
      Lonely time..


Bridge
e|---------------------------------------------------------------------------|
B|-------1-----------1------------3------------3-----------------------------|
G|-----0---0-------0---0--------0---0--------0---0---------------------------|
D|---2-------2---2-------2----0-------0----0-------0-------------------------|
A|-3-----------3-------------------------------------------------------------|
E|--------------------------3------------3-----------------------------------|
   I need..                    Your love..

e|---------------------------------------------------------------------------|
B|-------1-----------1-----------0-----------0-------------------------------|
G|-----2---2-------2---2-------0---0-------0---0-----------------------------|
D|---2-------2---2-------2---2-------2---2-------2---------------------------|
A|-0-----------0-----------2-----------2-------------------------------------|
E|---------------------------------------------------------------------------| 
   I need..                     Your love

e|---------------------------------------------------------------------------|
B|-------1-------------3------------1-----------1-----------1-----------1----|
G|-----2---2---------0---0--------0---0-------0---0-------3---3-------3---3--|
D|---3-------3-----0-------0----2-------2---2-------2---2-------2---2-------2|
A|-3--------------------------3-----------3-----------3-----------3----------|
E|--------------3------------------------------------------------------------|
    God           speed your love..     to me..   

e|---------------------------------------------------------------------------|
B|-------1-----------3-------------1------------8----------------------------|
G|-----2---2-------0---0---------2---2--------8---8--------------------------|
D|---3-------3---0-------0-----3-------3----8-------8------------------------|
A|-3-------------------------3------------6----------------------------------|
E|-------------3-------------------------------------------------------------|
   Lonely rivers flow           to the sea.. to the sea    
                          X 2
e|---------------------------------------------------------------------------|
B|-------1-----------3------------1--------------1---------------------------|
G|-----2---2-------0---0--------0---0----------0---0-------------------------|   
D|---3-------3---0-------0----2-------2------2-------2-----------------------|
A|-3------------------------3-----------3--3---------------------------------|
E|-------------3-------------------------------------------------------------|
   To the       open arms of the sea

Ending
e|---------------------------------------------------------------------------|
B|---------1------------3-----------1-----------1-----------1-----------1----|
G|-------2---2--------0---0-------0---0-------2---2-------2---2-------2---2--|
D|-----3-------3----0-------0---2-------2---2-------2---3-------3---3-------3|
A|---3------------------------3-----------0-----------3-----------3----------|
E|----------------3----------------------------------------------------------|
      God      Speed your love to me 
e|---------------------------------------------------------------------------|
B|-------1-----------1---------1-----------=---------------------------------|
G|-----1---1-------1---1-------0---------------------------------------------|
D|---3-------3---3-------3-----2---------------------------------------------|
A|-3-----------3---------------3---------------------------------------------|
E|---------------------------------------------------------------------------|
                      (Softly end with C) 

A beautiful easy to play song for that special someone. Full credit to John Leadman for
the chords. I just figured out the picking pattern and tried to make life easier especially
for people starting out. A wave to all singaporeans out there.

==============================================================


Текст, аккорды и табулатура для песни "Unchained Melody", исполняет "Righteous Brothers".
Используемые в песне аккорды можно найти в разделе Как брать аккорды. Аккорды для шестиструнной гитары. Другие песни можно найти на нашем сайте, воспользовавшись алфавитным указателем вверху страницы.


 
Ошибка в тексте? Выделите ошибку и нажмите Ctrl+Enter