Riddlin kids: inside my head
Tabbed by mavrick45


G--–11—-15-—16-—14-—15—-----]
D---------------------------]           X4
A---------------------------]
E---------------------------]


G-----------------------]
D-----------------------]        X2
A-----------------------]
E—--2---2----2----2-----]


G--------------------------------]
D--------------------------------]
A--------------------------------]
E--—2—2—2—2—2—2—2—2—2—2—2—2------]


G---------------------]
D---------------------]
A---------------------]
E--—2-2-2-2-2-2-2-2---]


G-----------------------------------------------------------------------
D-----------------------------------------------------------------------     X2
A--------------------0-0-0-0-0-0-0-0--2-2-2-2-2-2-2-2--0-0-0-0--2-2-2-2-
E---2-2-2-2-2-2-2-2-----------------------------------------------------


G----------------------------------------------------------------------------
D----------------------------------------------------------------------------  X2
A----------------------------------0-0-------------0-0-0-0--2-2-2-2-4-4-4-4--
E---2-2-2-2-2-2--0-0--2-2-2-2-2-2--------2-2-2-2-----------------------------


Part one
G-----------------------------------------------------]
D-----------------------------------------------------]          X2
A--------4-4-4--0-0--2-2-2----------------------------]
E---2-2---------------------0-0--0-0-0--2-------------]

Part two
G-----------------------------------------------------------------------
D---------------------------------------------------------------2-2-2-2-     X2
A--------------------0-0-0-0-0-0-0-0--2-2-2-2-2-2-2-2--4-4-4-4----------
E---2-2-2-2-2-2-2-2-----------------------------------------------------


Part one   X4
Part two   X2
Part one   X2

   


Bridge
G---------------------------------------------------------------------
D---------------------------------------------------------------------        X2
A-------------------------------------0-0-0-0-0-0-0-0-----------4--2--
E---2-2-2-2-2-2-2-2--0-0-0-0-0-0-0-0-------------------0-0-0-0--------


Part two   X2



G-----------------------
D-----------------------         X4
A-----------------------
E---2-2-2-2-2-2---0-0---

Hold last note last time.


Текст, аккорды и табулатура для песни "Inside My Head", исполняет "Riddlin Kids".
Используемые в песне аккорды можно найти в разделе Как брать аккорды. Аккорды для шестиструнной гитары. Другие песни можно найти на нашем сайте, воспользовавшись алфавитным указателем вверху страницы.


 
Ошибка в тексте? Выделите ошибку и нажмите Ctrl+Enter