Riddlin kids
Blind
Tabbed by mavrick45


Part one
G-------------------------
D-------------------------
A-3-3-x-x-x-x-3-----------
E---------------0-1-------


Part two
G--------------------------
D--------------------------
A-3-3-x-x-x-x-3------------
E----------------0-1-/-3---

Part one
Part two


Part three
G--------------------------------------------------------------------
D--------------------------------------------------------------------
A--------------------------------------------------------------------
E-5-5-5-5---3-3-3-3---1-1-1-1---0-0---1-1---3------0-0-0-0---1-1-1-1-


Part four
G------------------------------------------------------------------------
D------------------------------------------------------------------------
A------------------------------------------------------------------------
E-5-5-5-5---3-3-3-3---1-1-1-1---0-0---1-1----3----0-0-0-0---1-1-1-1---3--


Part five
G-------------------------------------------------------------------------
D-------------------------------------------------------------------------  X2
A---3-3-3-3-3-3-3-3---------------------0-0-0-0-0-0-0-0-------------------
E---------------------1-1-1-1-1-1-1-1---------------------3-3-3-3-3-3-3-3-


REPEAT ALL


Part six
G-----------------------------------------
D-----------------------------------------   X2
A-----------------------------------------
E-5-5-5-5---3-3-3-3---1-1-1-1---0-0---1-1-





Part seven
G-----------------------------------------------------------------------
D-----------------------------------------------------------------------
A-----------------------------------------------------------------------
E---5-5-5-5---3-3-3-3---1-1-1-1---0-0---1-1---3---0-0-0-0---1-1-1-1---3-


Part eight
G----------------------
D----------------------        X2
A---3-------0----------
E-------1---------3----


Part five


Part nine
G---------------------------------
D---------------------------------
A---3-3---xxxxxxxxxxxx---3--------
E---------------------------0---1-


Текст, аккорды и табулатура для песни "Blind", исполняет "Riddlin Kids".
Используемые в песне аккорды можно найти в разделе Как брать аккорды. Аккорды для шестиструнной гитары. Другие песни можно найти на нашем сайте, воспользовавшись алфавитным указателем вверху страницы.


 
Ошибка в тексте? Выделите ошибку и нажмите Ctrl+Enter