i think this song is written by damien rice but sung,(on his album, 'o')by
a girl called lisa hannigan. it's such a good song, and this tab is kind of a
mixture of the gitar part and the tune, so you can sing along (if you want. i
like to!)i hope it makes sense!


verse;

e------------------------------------------------------------
b------------------------------------------------------------
g------------------------------------------------------------
d------2---------2--------2----------------------------------
a----0-------2--------4--------2--4--5-4--2----2--4--5--4--2-
e--2------4-------5--------------------------4---------------

   i remember it well......

E--------------------------------------/----------------------
B--------------------------------------/----------------------
G--------------------------------------/---------------------- x 2
D--------------------------------------/----------------------
A-------------0--2--4--2--2------------/----------------------
E---4--2--0----------------------------/----------------------

chorus;

E----------------------------------------------------------------
B----------------------------------------------------------------
G----------------------------------------------------------------
D--------2--2--2---------2-------2-2-2--2-0---------4--2-2-------
A---4-5------------4--5-----4--5--------------4--0---------------
E----------------------------------------------------------------

want you here tonight, want you here.....

E----------------------------------------------------------------
B----------------------------------------------------------------
G-------------2--1-----------------------------------------------
D---2--2--2---------4---2-2-2-2----------------------------------
A---------------------------------5--4-0-------------------------
E----------------------------------------------------------------


Текст, аккорды и табулатура для песни "I Remember", исполняет "Rice Damien".
Используемые в песне аккорды можно найти в разделе Как брать аккорды. Аккорды для шестиструнной гитары. Другие песни можно найти на нашем сайте, воспользовавшись алфавитным указателем вверху страницы.


Слушать онлайн I Remember


Damien RiceI Remember на Яндекс.Музыке


 
Ошибка в тексте? Выделите ошибку и нажмите Ctrl+Enter