Title: War
Artist: Frenzal Rhomb
Album: Shut Your Mouth

Tabbed by Caleb [email protected]}

Verse (clean tone, just palm mute versions of Bb5)
e---------------------------
B---------------------------
G---------------------------
D---------------------------
A-8-xx-8-xx-8-xx-8-xx-8x8---
E-6-xx-6-xx-6-xx-6-xx-6x6---

Lights out on the street tonight
Walking alone in the fading light
Vague sounds of a distant band
The desperate howls of a one night stand
Thin smile and clenching fist
Scoping tags like sniffing piss
Stay in control as the tension mounts
Magnetic pull from north to south


Pre-chorus
e--------------------------------------
B--------------------------------------
G-8----------10-------8----------------
D-8------8---10-------8--------8-------
A-6------8----8-------6--------8-------
E--------6---------------------6-------

And I wish I had the resolution
skills to walk away
It never happens quite that way

Chorus
e------------------------
B------------------------
G--------8------10-------
D-8------8------10-------
A-8------6-------8-------
E-6----------------------

Do you wanna start a war, war
Do you wanna start a war

*Verse 2*
e---------------------------
B---------------------------
G---------------------------
D---------------------------
A-8-xx-8-xx-8-xx-8-xx-8x8---
E-6-xx-6-xx-6-xx-6-xx-6x6---

Base thump on the stereo
Tongue tied and I want to know
Cut and dried, I'm all cut up
Sting like amphetamines and ready to go

*Pre-chorus*
e--------------------------------------
B--------------------------------------
G-8----------10-------8----------------
D-8------8---10-------8--------8-------
A-6------8----8-------6--------8-------
E--------6---------------------6-------

And I wish I had the resolution
skills to walk away
It never happens quite that way


*Chorus twice*
e------------------------
B------------------------
G--------8------10-------
D-8------8------10-------
A-8------6-------8-------
E-6----------------------

Do you wanna start a war, war
Do you wanna start a war
Do you want to stand up and keep your head held high?
Can you place yourself on the other side?
Do you remember what you're fighting for?
Do you really want to start a war?

Bridge (sort of calypso feel, play near bridge)
e-------------------------------------------
B-------------------------------------------
G--8-8-x-8--8-8-x-8------------10-10-x-10---
D--8-8-x-8--8-8-x-8---8-8-x-8--10-10-x-10---
A--6-6-x-6--6-6-x-6---8-8-x-8---8--8-x--8---
E---------------------6-6-x-6---------------
Always searching for some answers or some cigarettes
e----------------------------------------
B----------------------------------------
G--8-8-x-8--8-8-x-8----------------------
D--8-8-x-8--8-8-x-8---8-8-x-8---8-8-x-8--
A--6-6-x-6--6-6-x-6---8-8-x-8---8-8-x-8--
E---------------------6-6-x-6---6-6-x-6--
I'd be happy either way

e---------------------------------------------------------
B---------------------------------------------------------
G-15-15-x-15---12-12-x-12---14-14-x-14---15-15-15-14-15---
D-15-15-x-15---12-12-x-12---14-14-x-14---15-15-15-14-15---
A-13-13-x-13---10-10-x-10---12-12-x-12---13-13-13-12-13---
E---------------------------------------------------------
Do you want to start a war?

e---------------------------------------------------------
B---------------------------------------------------------
G-15-15-x-15---12-12-x-12---14-14-x-14---14-14-14-14-14---
D-15-15-x-15---12-12-x-12---14-14-x-14---14-14-14-14-14---
A-13-13-x-13---10-10-x-10---12-12-x-12---12-12-12-12-12---
E---------------------------------------------------------
Do you wanna start a war

Chorus a couple of times

End on  e-------
        B-------
	G-------
	D---8---
	A---8---
	E---6---




Текст, аккорды и табулатура для песни "War", исполняет "Rhomb Frenzal".
Используемые в песне аккорды можно найти в разделе Как брать аккорды. Аккорды для шестиструнной гитары. Другие песни можно найти на нашем сайте, воспользовавшись алфавитным указателем вверху страницы.


Слушать онлайн War


Frenzal RhombWar на Яндекс.Музыке


 
Ошибка в тексте? Выделите ошибку и нажмите Ctrl+Enter