RHAPSODY - VIRGIN SKIES
Music:Staropoli and Turilli

Transcribed By: Jacopo Panizzardi

Email: [email protected]
	[email protected]
	 

Please mail me if you find mistakes!

Normal Tuning 

 Acoustic Guitar
E--3-3---3---3---------------------3---3---3---------------------|
B------4---4---6-3-6-4-3----3--------4---4---6-3-6-3-------------|
G------------------------5----4----------------------5-4-5-------|
D-------------------------------5--------------------------------|
A----------------------------------------------------------------|
E----------------------------------------------------------------|

  flute rearranged for guitar			       
E---3--5-6--4-3------------------------------------------------8-6--4--3---------|
B---------------6-4-3-------------------------------------8--8-----------4-------|
G-5-------------------5-4--5---5-7----4-5-7-5---5-7-8-7-5------------------5-----|
D----------------------------5-----8---------------------------------------------|
A--------------------------------------------------------------------------------|
E--------------------------------------------------------------------------------|
								     
 pause
E---3--5-6--------------------------------------------------------------|
B----------8-6--4-6-8-6-4------------------8-6--------------------------|
G-5-----------------------7-5-4---4-7-5-8-------8-7-5---5-7-5---5-------|
D-------------------------------7---------------------8-------8---------|
A-----------------------------------------------------------------------|
E-----------------------------------------------------------------------|
 		         
E------5-6--4-3-----------------------------------------------|
B----8----------6-4-3-----------------------------------------|
G-5-------------------5-4----5---5---5-7----4--5--7--5--------|
D------------------------------5---5-----8--------------------|
A-------------------------------------------------------------|
E-------------------------------------------------------------|
		   

***************************************************


Текст, аккорды и табулатура для песни "Virgin Skies", исполняет "Rhapsody".
Используемые в песне аккорды можно найти в разделе Как брать аккорды. Аккорды для шестиструнной гитары. Другие песни можно найти на нашем сайте, воспользовавшись алфавитным указателем вверху страницы.


 
Ошибка в тексте? Выделите ошибку и нажмите Ctrl+Enter