***************************************************************************
* RHAPSODY - TRIUMPH FOR MY MAGIC STEEL (From the album: DAWN OF VICTORY) *
***************************************************************************
 Music and Words By: Turilli & Staropoli/Turilli

Transcribed By: Niclas Buss
Days tabbed: 27-28.12.2000
email: [email protected]

Please mail me if you can find mistakes!

-----------------------------------------

 Normal Tuning!!

  Intro (Gtr.1)
E--------13-17~---------15-18~---16-13----------13-/-17~--13-17-15h17p15-13-12h13p|
B-----15--------------17-----------------15----15-----------------------------------|
G--14--------------18-----------------------16--------------------------------------|
D-----------------------------------------------------------------------------------|
A-----------------------------------------------------------------------------------|
E-----------------------------------------------------------------------------------|

E12-----------13-17~---------15-18~---16-13-----------13-/-17~--13-17-15h17p15-13-|
B---15----15--------------17------------------15----15-----------------------------|
G-------14--------------18------------------------16--------------------------------|
D-----------------------------------------------------------------------------------|
A-----------------------------------------------------------------------------------|
E-----------------------------------------------------------------------------------|

E----/-22~-18-22-21-18-17--------13----------17----------13----------17----------/15|
B-17----------------------18--|-----15-14-15----15-14-15----15-14-15----15-14-15----|
G-----------------------------|-----------------------------------------------------|
D-----------------------------|-----------------------------------------------------|
A-----------------------------|-----------------------------------------------------|
E-----------------------------------------------------------------------------------|

E----------18----------15----------18-----------13----------16----------13---------|
B-17-15-17----17-15-17----17-15-17----17-15-17------15-14-15----15-14-15----15-14-15|
G-----------------------------------------------------------------------------------|
D-----------------------------------------------------------------------------------|
A-----------------------------------------------------------------------------------|
E-----------------------------------------------------------------------------------|

E-16----------/-17~--13-17-15h17p15-13-----/-13----------17----------13----------17-|
B----15-14-15--------------------------17~------15-14-15----15-14-15----15-14-15----|
G-----------------------------------------------------------------------------------|
D-----------------------------------------------------------------------------------|
A-----------------------------------------------------------------------------------|
E-----------------------------------------------------------------------------------|

E---------12----------15----------12----------15----------10----------13----------|
B15-14-15-----14-12-14----14-12-14----14-12-14----14-12-14-----12-10-12----12-10-12-|
G-----------------------------------------------------------------------------------|
D-----------------------------------------------------------------------------------|
A-----------------------------------------------------------------------------------|
E-----------------------------------------------------------------------------------|

E10----------13----------/-13~-10-13-12h13p12-109~-/-17~--13-17-15h17p15-13-17~--17|
B---12-10-12----12-10-12------------------------------------------------------------|
G-----------------------------------------------------------------------------------|
D-----------------------------------------------------------------------------------|
A-----------------------------------------------------------------------------------|
E-----------------------------------------------------------------------------------|

E----------17h22p17-17p13----------13h18p13p17p13-------/12-------------------------|
B-18----18----------------15----15----------------15--------14----/15p10------------|
G----19----------------------14----------------------14--------14--------10---------|
D---------------------------------------------------------------------------12------|
A------------------------------------------------------------------------------12---|
E---------------------------------------------------------------------------------13|

             Intro (Gtr.2)
E---------||------------------------------------------------------------------------|
B---------||------------------------------------------------------------------------|
G-----5~--||------7----7~-------------------------------7----7~-------------------|
D-----5~--||--7~--7----7~--8----8~--7----7~---7~--7~--7----7~--8---8~--7----7~|
A-----3~--||--7~--5----5~--7----7~--8----8~---7~--7~--5----5~--7---7~--8----8~|
Ep10-----||--5~----------------------------5~---5~--5~---------------------------5~|

E-----------------------------------------------------------------------------------|
B--------------------------|--------------------------------------------------------|
G-----/10-7---7--9-6---6---|------7---/10-7---7-------------------------------------|
D--7~-------7--------5-----|----7---7-------7--------------8---------------6---9-6--|
A--7~----------------------|--8---------------------7-10-7---10-7-10--5-8---8-----8|
E--5~--------------------------------------------9---------------------------------|
      pm.................|  pm......................................................

E-----------------------------------------------------------------------------------|
B-----------------------------------------------------------------------------------|
G--------7---6-----------7---/10-7---7--------------------------------------------7-|
D-6----7---7---7-------7---7-------7-------------8---------------6---9-6---6----7---|
A----5-----------7-/-8--------------------7-10-7---10-7-10--5-8---8-----8----5-----|
E--------------------------------------9-------------------------------------------|
 ...................................................................................

                                          end Intro    Verse 1
E---------------------------------------------------||------------------------------|
B---------------6---5-------------------------------||--------6-----------6---------|
G---6---------7---7---6------7-------7-----5~~----||*-----7---7~------7---7~------|
D-7---7---/-7-----------7~---7-------7-----5~~----||*---0------------------------5|
A-------7--------------------5-------5-----3~~----||---------------------------3--|
E----------------------------5---------------------||---------------7--------------|
 ..................|
                                                                 x2   Bridge
E-----------------------------------------------------------------------------------|
B-5----------3---------2----------3---------5---------5---6p5-------|---------------|
G---5~---------3~--------2~---------3~--------5~----7---7-----7----*|---------------|
D----------3---------2----------3---------5-------0-------------7--*|--5-5-7-8------|
A-------1---------0---------/1--------/3---------------------------|----------3-3-|
E-----------------------------------------------------------------------------------|
                                                                      pm..|   pm....

E-----------------------------------------------------------------------------------|
B-----------------------------------------------------------------------------------|
G------------------------------------------------------------5----------------------|
D------3-3-5-7----------------------8~-8~------------7-5-8-7---8-7-5-8-7-4--5-5-7-8|
A-5-7---------------------6-6-8-10--7~-7~--5-5-7-5-9--------------------------------|
E--------------6-6-8-10------------------------------------------------------------|
 .........|   pm.............|            pm........|

E-----------------------------------------------------------------------------------|
B------------------------------------------------------5---6----------------------|-|
G--------------------------------------------------7------------------------------|-|
D----------3-3-5-7----------------------8~-8~----7---7---7---7--7-7-5---5---------|-|
A3-3-5-7---------------------6-6-8-10--7~-7~--5----------------------8---8-5-4--|-|
E------------------6-6-8-10--------------------------------------------------------|

  Chorus (1)
E-----------------------------------------------------------------------------------|
B----------------------------------------------------------5~-----------------------|
G--7---5--3-------5------------------3---------5---5-----5~---7---5--3-------5--|
D--7---5--3-------5-------3----------3----3----5---5-----5~---7---5--3-------5--|
A--5---3--1-------3-------3----------1----3----3---3-3-3-3~---5---3--1-------3--|
E--------------5p3-----5p3--1--1-h3h5-------1-------------------------------5p3-----|
                                                      pm..|

E---------------------------------------17----------17h22p17-17p13----------13h18p13|
B------------------------------------|-----18----18----------------15----15---------|
G-----------------3---------5----6~--|--------19----------------------14------------|
D------3----------3----3----5----5~--|----------------------------------------------|
A------3----------1----3----3----4~--|----------------------------------------------|
E-5p3--1--1-h3h5-------1------------------------------------------------------------|

                                    Gtr.2: D5   C5~                            
Eh17p13-------12-------------------------------------------------------------------|
B-------15--------14----/15p10------------------------|---------------|-------------|
G----------14--------14--------10-----------------5~--|----Verse-1----|----Bridge---|
D---------------------------------12--------------5~--|---------------|-------------|
A------------------------------------12-----------3~--|---------------|-------------|
E---------------------------------------13p10--------------------------------------|

  Chorus (2)
E-----------------------------------------------------------------------------------|
B-----------------------------------------------------------5~----------------------|
G---7---5--3-------5------------------3---------5---5-----5~---7---5--3------5--|
D---7---5--3-------5-------3----------3----3----5---5-----5~---7---5--3------5--|
A---5---3--1-------3-------3----------1----3----3---3-3-3-3~---5---3--1------3--|
E---------------5p3-----5p3--1--1-h3h5-------1-------------------------------5p3----|
                                                       pm..|
                                      Harmony Solo
E--------------------------------------10p6---10p6------/15-10--------17p13----17p13|
B-----------------------------------|-------8------8-----------11-----------15------|
G-----------3---------5----6----7~--|----------------7~-----------12----------------|
D------3----3----3----5----5----7~--|-----------------------------------------------|
A------3----1----3----3----4----5~--|-----------------------------------------------|
E-5p3--1---------1------------------------------------------------------------------|

E--------/22-17---------10p6-------6h10-/-15p10----------10h15-/17-15-13-----------|
B-15------------18------------8---8--------------11----11-----------------17-15b(17)|
G----14~-----------19-----------7-------------------12------------------------------|
D-----------------------------------------------------------------------------------|
A-----------------------------------------------------------------------------------|
E-----------------------------------------------------------------------------------|

                                                                             faster
E--------/10p6---10p6------/15-10--------17p13----17p13--------/22-17-------/-22p18-|
B-r-15~--------8------8-----------11-----------15-------15------------18------------|
G-----------------------7~-----------12--------------------14~-----------19---------|
D-----------------------------------------------------------------------------------|
A-----------------------------------------------------------------------------------|
E-----------------------------------------------------------------------------------|

							    Interlude (Two Guitars)
E----------18h22-17p13----------13-/-18-17-15-----------------------------13-17~--|
B-20----20--------------15----15---------------18-17-15~--|-------------15----------|
G----19--------------------14-----------------------------|------7--14-------------|
D---------------------------------------------------------|--7~--7-----------------|
A---------------------------------------------------------|--7~--5-----------------|
E------------------------------------------------------------5~---------------------|

E-----------------15-18~-------------16-13----------13-/-17~--13-17-15h17p15-13-12h|
B--------------17---------------------------15----15--------------------------------|
G---7~------18---------------------------------16-----------------------------------|
D---7~--8-------------------8~--7------------------------7~----------7~---------7~|
A---5~--7-------------------7~--8------------------------8~----------7~---------7~|
E----------------------------------------------------------5~----------5~---------5~|

E13p12-------------13-17~------------------15-18~-------------16-13----------13-/-|
B------15------15-----------------------17---------------------------15----15------|
G-------7---14---------------7~------18---------------------------------16---------|
D-------7--------------------7~--8-------------------8~--7-----------------------|
A-------5--------------------5~--7-------------------7~--8-----------------------|
E-----------------------------------------------------------------------------------|

							  Violin Solo arranged for G
E-17~--13-17-15h17p15-13-----/-22~-18-22-21-18-17-------------------------/-12-13-15|
B------------------------17~----------------------18----|---15~-18-17-15~-----------|
G------------------------------10---7----7---9--6-------|*--------------------------|
D--7~---------7~-----------------------7-----------7----|*--------------------------|
A--8~---------7~-------(Gtr.1)pm.....................|--|---------------------------|
E--5~---------5~--------------------------------------------------------------------|

 uitar:
E-13--12---18-17-18-15-18----18----18-------------------------/-12-13-15--17--20-18-|
B-------------------------18----17----15-/17-15-14~-17-15-14~--------------.--------|
G-----------------------------------------------------------------------------------|
D-----------------------------------------------------------------------------------|
A-----------------------------------------------------------------------------------|
E-----------------------------------------------------------------------------------|

                                        x4
E-17----18-17-------17--------------------------------------------------------------|
B----20-------20-18----20-18-17-20-18-17---|----------------------------------------|
G-----------------------------------------*|----7------------5---------/--7---------|
D-----------------------------------------*|----7------4-----5-----2---/--7-----4---|
A------------------------------------------|----5------4-----3-----2---/--5-----4---|
E------------------------------------------------------2-----------0------------2---|
                                                                                  __
                                                                                 |1.
E--------------------------------------------------------------------------------|--|
B------------------|-------------------------------------------------------------|--|
G--5--------/-4----|*-----------5---------------7~----------------5--------------|-7|
D--5-----2--/-4----|*--2--------5-------5-------7~-------2--------5-------5------|-7|
A--3-----2--/-2----|---2--------3-------5-------5~-------2--------3-------5------|-5|
E--------0-------------0---3-2-----7-5--3--5-7--5~-3p2--0---3-2-----7-5--3--5-7-|-5|
 ____________ ___________
             |2.         |  With Fill 1
E------------|-----------||---------------------------------------------------------|
B------------|-----------||---------------------------------------------------------|
G~--5-/-7~--*|-7~--------||---9------------------5------------------7--------------|
D~--5-/-7~--*|-7~--------||---9------------------5------------------5-5-5-5-5-5-5-5|
A~--3-/-5~---|-5~--12---||---7-7-7-7-7-7-7-7-7--3-3-3-3-3-3-3-3-3-----------------|
E~--3-/-5~---|-5~--------||---------------------------------------------------------|
                               pm..............|   pm..............|  pm............

E-----------------------------------------------------------------------------------|
B-----------------------------------------------------------------------------------|
G----7------------------9------------------5------------------7------------------|
D-5--7------------------9------------------5------------------5-5-5-5-5-5-5-5-5--|
A----5-5-5-5-5-5-5-5-5--7-7-7-7-7-7-7-7-7--3-3-3-3-3-3-3-3-3---------------------|
E-----------------------------------------------------------------------------------|
 ..|   pm..............|  pm..............|   pm..............|  pm..............|

                        Guitar Solo (with Fill 2)
E-----------------------------------------------------------------------------------|
B---------------------|-------------13-15-15-13-15--16-16-b(18)r16-15-13-16-15-15-13|
G-7-------------------|--12~-14-15--------------------------------------------------|
D-7-------------------|-------------------------------------------------------------|
A-5-5-5-5-5-5-5-5-5---|-------------------------------------------------------------|
E-----------------------------------------------------------------------------------|
   pm......|

E-----------/15-15~-14h15p14--------------------------------------------------------|
B-15--16-16-------------------15-15-/16-16-15h16p15-14-14-14-----------------------|
G-------------------------------------------------------------15-14-1211-12-14b(15)|
D-----------------------------------------------------------------------------------|
A-----------------------------------------------------------------------------------|
E-----------------------------------------------------------------------------------|

E----------------------15-17-17-15-17-18~-b(20)-r18-17-15-18-17-17-15-17--18-18-/-22|
B-------/15~-15-17-18---------------------------------------------------------------|
G-r14~------------------------------------------------------------------------------|
D-----------------------------------------------------------------------------------|
A-----------------------------------------------------------------------------------|
E-----------------------------------------------------------------------------------|

E-22~-21h22p21--17-17-/18-18-17h18p17-16~-16--------------------------------------|
B----------------------------------------------18-17-1514-15-17~~---|--------------|
G--------------------------------------------------------------------|----Bridge----|
D--------------------------------------------------------------------|--------------|
A--------------------------------------------------------------------|--------------|
E-----------------------------------------------------------------------------------|

                                                  Two Guitars:
E---------------------------------------------------------10----||
B--------------|--------------|----------------|---10~-----------||
G--Chorus-(1)--|--Chorus-(2)--|--Harmony-Solo--|-----------7----|| end
D--------------|--------------|----------------|---7~------7----||
A--------------|--------------|----------------|---7~------5----||
E--------------------------------------------------5~------------||

--------------------------------------------------------------------------------------

  Fill 1                                                                     Fill 2
E--------------------------------------12-13-15--14-12------------------------------|
B--12~--15-13-12--10----10~----------------------------15~-13-12-10--------|--8--/-|
G--------------------12-----11---------------------------------------11-----|--/----|
D------------------------------12-/14-----------------------------------12--|--/----|
A---------------------------------------------------------------------------|--/----|
E-----------------------------------------------------------------------------------|

 (Clean Sound)
E-------------11-------------6------------------------------17--18--13--------------|
B-10-11--8----/---8-------8-/--10--8h10--/-15--17-18--15---/---/---/--15---13-11--|
G--/--/---/----/---/----7--/-/---/--/--/-----/---/--/----/---/---/---/---/----/--/--|
D--/--/---/----/---/----/--/-----/--/--/-----/---/--/----/---/---/---/---/----/--/--|
A--/--/---/--------/----/--/-----/--/--/-----/---/--/----/---------------/----/--/--|
E-----------------------/-----------------------------------------------------------|

E--------13-12------12~---||
B-----15--/--/--15---/----||
G-14---/--/--/---/---/----|| end
D--/---/--/--/---/---/----||
A--/---/---------/--------||
E--/----------------------||

  Rhythm Guitar during Harmony Solo
E-----------------------------------------------------------------------------------|
B-----------------------------------------------------------------------------------|
G---------------------7------7--------------------------------------------------7---|
D------5------5-------7------7-------5------5--------------------5------5-------7---|
A------5------5---5-5-5--5-5-5-------5------5---5~-3~------------5------5---5-5-5--5|
E--3-3-3--3-3-3------------------3-3-3--3-3-3---------6~-5~--3-3-3--3-3-3-----------|
  pm..|  pm..|   pm..|  pm..|   pm..|  pm..|                pm..|  pm..|   pm..|  pm

E-------------------------------||
B-------------------------------||
G---7---------------------------|| end
D---7---------------------------||
A-5-5------------5~-4~-/7~-5~---||
E-------3~-6~-5~----------------||
 ..|

  Rhythm Guitar during Violin Solo
E-----------------------------------------------------------------------------------|
B-----------------------------------------------------------------------------------|
G--7-----7---7------7-----7---7----------------------------------------/--7-----7---|
D--7-----7---7------7-----7---7--------7-----7---7------7----7--7--7--/--7-----7---|
A--5-5-5-5-5-5-5-5--5-5-5-5-5-5-5-5----7-----7---7------7----7--7--7--/--5-5-5-5-5-|
E--------------------------------------5-5-5-5-5-5-5-5--5----5--5--5--/--5-5-5-5-5-|
    pm..| pm  pm..|  pm..| pm  pm..|     pm..| pm  pm..|                   pm..| pm

E-----------------------------------------------------------------------------------|
B-----------------------------------------------------------|-----------------------|
G-7------7-----7---7----------------------------------------|*--7-----7---7------7--|
D-7------7-----7---7--------7-----7---7------7----7--7--7--|*--7-----7---7------7--|
A-5-5-5--5-5-5-5-5-5-5-5----7-----7---7------7----7--7--7--|---5-5-5-5-5-5-5-5--5-5|
E-5-5-5--5-5-5-5-5-5-5-5----5-5-5-5-5-5-5-5--5----5--5--5--------------------------|
   pm..|  pm..| pm  pm..|     pm..| pm  pm..|                    pm..| pm  pm..|  pm

                                                 x2
E-----------------------------------5----5---5--5---||
B-----------------------------------5----5---5--5---||
G---7---7---------------------------6----6---6--6--*|| end
D---7---7--------7-----7---7-------7----7---7--7--*||
A-5-5-5-5-5-5----7-----7---7-----------------------||
E----------------5-5-5-5-5-5-5-5-------------------||
 ..| pm  pm..|     pm..| pm  pm..|

  Rhythm Guitar during Guitar Solo
E-----------------------------------------------------------------------------------|
B---------------------------------------------3-------------------------------------|
G----------7------------------------------5-5---5---5-------------------------5-----|
D----7-8-7---8-7--------5---------------5---------5-----------5-8-5---5-----5---5---|
A--5-------------5----5---5---5-----/-3---------------------5-------5---/-3-------6-|
E------------------6-------6---6-3--------------------3-6-------------------------|
  pm................................................................................

E-----------------------------------------------------------------------------------|
B--------------------------------5----------7--------------------5----------------6p|
G-----------------3------------6---6---6------7---9---7-7------7---7---5------7-----|
D-5---5-------5-----5---5----7-------7----------7---7--------7-------7------7---7---|
A---5-------5---5-----5---4-------------5----------------5--------------5---------|
E--------3-------------------------------------------------------------------------|
 ................................................................................|

E-----------------------------------------------------------------------------------|
B5--------------------------------5-----------------------------------5-------------|
G--7---5----------------------7-----7---7-------------------------7-----7---7-------|
D----7--------5-------------7---7-----7---------5---------------7---7-----7---------|
A-----------5---5---5---/-5-------------------5---5---5---5-/-5--------------------7|
E--------3-------6---5--------------------3-------6---5-----------------------4--|
  pm................................................................................

E------------------------||
B------------------------||
G------4-----------------|| end
D-6------6---6---7~~-----||
A---7------7-----7~~-----||
E----------------5~~-----||
 ..............|

--------------------------------------------------------------------------------------

=======================
=TABLATURE EXPLANATION=
=======================

A.H. = Artificial Harmonic

pm..| = Palm mute

h = hammer on

p = pull off

/ = slide up

 = slide down

~ = Vibrato

b() = Bend

x = Pick Slide

--------
--------
---12--- = Tremolo pick
----/---
----/---
----/---

---.---
--12--- = Staccato
-------
-------
-------

|     |
|     |
|*   *| = repeat from * to *
|*   *| 
|     |


Текст, аккорды и табулатура для песни "Triumph For My Magic Steel", исполняет "Rhapsody".
Используемые в песне аккорды можно найти в разделе Как брать аккорды. Аккорды для шестиструнной гитары. Другие песни можно найти на нашем сайте, воспользовавшись алфавитным указателем вверху страницы.


 
Ошибка в тексте? Выделите ошибку и нажмите Ctrl+Enter