******************************************************************************
* RHAPSODY - TEARS OF A DYING ANGEL (From the EP: RAIN OF A THOUSAND FLAMES) *
******************************************************************************
 Music and Words By: Turilli & Staropoli/Turilli

Transcribed By: Niclas Buss
Day tabbed: 2.3.2002
Homepage: http://www.metalprovider.com/thedarktower
email: [email protected]

Please mail me if you can find mistakes!

-----------------------------------------

 Normal Tuning!!
                     Riff 1                                              x2
E-----------------------------------------------------------------------------------|
B------------------|--------------------------------------------------------|-------|
G--Intro-(20-sec)--|*---------------------------------------------6----5---*|--Orche|
D------------------|*--2-2----2-2----2-2----2-2-----5----4----6----5---*|-------|
A------------------|---2-2----2-2----2-2----2-2-----5----4----4----3----|-------|
E----------------------0-0----0-0----0-0----0-0-----3----2----------------------|

         Riff 2 (0:59)
E-----------------------------------------------------------------------------------|
B------|-------------------------------------------------------------------|--------|
Gstra--|-------------5-----7-----------------5-----------------------------|--Riff-1|
D------|-------3-----5-----7-----2-----5--/--5---2-----2h3p2---------------|--------|
A------|--x---3-----3-----5-----2-----5--/--3---2-----------5-3-2---------|--------|
E---------x---1-----------------0-----3--/------0-----------------5-3-2------------|
                                                            pm..........|

                                                                (3:09)
E-----------------------------------------------------------------------------------|
B--|-------------|----------|--------|------------------------|---------------------|
G--|--Orchestra--|--Riff-2--|--------|--Keyboard-&-Narrative--|---------------------|
D--|-------------|----------|---2~~--|------------------------|--4-----------3------|
A--|-------------|----------|---2~~--|------------------------|--4-----------3------|
E-------------------------------0~~------------------------------2--2-2-2-2--1--1-1-|
                                                                   pm.......|  pm...

                                                              (3:48)
E-----------------------------------------------------------------------------------|
B----------------------------------|------------------------|-----------------------|
G-------5-----5--------------------|--Keyboard-&-Narrative--|-----------------------|
D-------5-----5-----2~~-----------|------------------------|--2~~-----2~~------2~~-|
A-------3-----3-----2~~-----------|------------------------|--2~~-----2~~------2~~-|
E-1-1---------------0~~---------------------------------------0~~-----0~~------0~~-|
 ....|

E-----------------------------------------------------------------------------------|
B------------|----------------------------------------------------------------------|
G------------|*-------------10--7--------------------------------------------------|
D-----2~~----|*--2----2----10--7---2-----2-----------------6----6-------------6|
A-----2~~----|---2----2-----8--5---2-----2--5--4-4--3----6----6-----7-/-4---6|
E-----0~~--------0-00-0-00--8--5---0--00-0--3--2-2--1----4-44-4-44--5-/-2---4|
                   pm.| pm.|            pm.|  pm..........|     pm.| pm.|

E-----------------------------------------------------------------------------------|
B-----------------------------------------------------------------------------------|
G--------------------------------10--7---------------------------------------------|
D----6----------------2----2----10--7---2----2----------------6----6------------|
A----6--7--6-6--5---2----2-----8--5---2----2--5--4-4--3---6----6-----7--4--|
E-44-4--5--4-4--3---0-00-0-00--8--5---0-00-0--3--2-2--1---4-44-4-44--5--2--|
 pm.|  pm..........|    pm.| pm.|           pm.|  pm..........|    pm.| pm.|

               x2 
E-----------------------------------------------------------------------------------|
B-----------------|-----------------------------------------------------------------|
G--8----8----8--*|---------6-----------6-------------------------------------4~~---|
D--8----8----8--*|---4-----6-----4-----6-----6---------------------2~~------4~~---|
A--6-66-6--6-6---|---4-----4-----4-----4-----6---------------------2~~------2~~---|
E---------------------2-----4-----2-----4-----4---4-4-4-4-4-4-4-4---0~~------------|
     pm.|  pm                                    pm..............|

                                              Lead Riff (with Riff 2)
E-----------------------------------------------------------------------------------|
B------------------|----------|-------------|---13~--10~----------------10-------9-|
G---8~~------------|--Riff-1--|--Orchestra--|----------------12~---9~--------10----|
D---8~~-----6~~----|----------|-------------|---------------------------------------|
A---6~~-----6~~----|----------|-------------|---------------------------------------|
E-----------4~~---------------------------------------------------------------------|

E----------------------------------------||
B-----/-12~---------------|--------------||
G-9~---------12~-/-13~~---|--------------|| end
D-------------------------|--2~~--------||
A-------------------------|--2~~--------||
E----------------------------0~~--------||

----------------------------------------------------------------------------------

=======================
=TABLATURE EXPLANATION=
=======================

A.H. = Artificial Harmonic

pm..| = Palm mute

h = hammer on

p = pull off

/ = slide up

 = slide down

~ = Vibrato

b() = Bend

x = Pick Slide

--------
--------
---12--- = Tremolo pick
----/---
----/---
----/---

---.---
--12--- = Staccato
-------
-------
-------

|     |
|     |
|*   *| = repeat from * to *
|*   *| 
|     |


Текст, аккорды и табулатура для песни "Tears Of A Dying Angel", исполняет "Rhapsody".
Используемые в песне аккорды можно найти в разделе Как брать аккорды. Аккорды для шестиструнной гитары. Другие песни можно найти на нашем сайте, воспользовавшись алфавитным указателем вверху страницы.


 
Ошибка в тексте? Выделите ошибку и нажмите Ctrl+Enter